Foxy Shazam - Across The Golder Fields Chords & Tabs

 

Across The Golder Fields Chords & Tabs

Foxy Shazam Chords & Tabs

Version: 1 Type: Tab 0 ratings
1 star 2 stars 3 stars 4 stars 5 stars
comments

Across The Golder Fields Tab

-------------------------------------------------------------------------------
			     Across the golden fields - Foxy Shazam!
-------------------------------------------------------------------------------
Tabbed by:norm
Email:norm111mob@hotmail.com
[ Tab from: http://www.guitartabs.cc/tabs/f/foxy_shazam/across_the_golder_fields_tab.html ]
Tuning:cgcfad
intro:play 4 times
d|-3-3-33-3-3-33-3-33-3-3-333-3-3-33-3-3-33-3-33-3-3-333--------------------|
a|-3-3-33-3-3-33-3-33-3-3-333-3-3-33-3-3-33-3-33-3-3-333--------------------|
f|-3-3-33-3-3-33-3-33-3-3-333-3-3-33-3-3-33-3-33-3-3-333--------------------|
c|-0-0-00-0-0-00-0-00-0-0-000-0-0-00-0-0-00-0-00-0-0-000--------------------|
g|-0-0-00-0-0-00-0-00-0-0-000-0-0-00-0-0-00-0-00-0-0-000--------------------|
c|-0-0-00-0-0-00-0-00-0-0-000-0-0-00-0-0-00-0-00-0-0-000--------------------|
Verse:play 4 times           pre chorus: make some noise
d|-----------------------------------------------------------------------------|
a|--8--8--7-7--9-9--1--11------------------------------------------------------|
f|--9--9--8-8--7-7--x--xx------------------------------------------------------|
c|-10-10--9-9--7-7--2--22------------------------------------------------------|
g|-------------7-7--3--33------------------------------------------------------|
c|-----------------------------------------------------------------------------|
chorus:play 4 times
e|-----12-----12-----12-----------------------------------------------------|
B|-----15-----15-----15-----------------------------------------------------|
G|--------------------------------------------------------------------------|
D|-000----000----000--------------------------------------------------------|
A|-000----000----000--------------------------------------------------------|
E|-000----000----000--------------------------------------------------------|
bridge:
d|--------------------------------------12121212----------------------------|
a|--------------------------------------12121212----------------------------|
f|------------------------------------------------15-15-15-15-15-15---------|
c|-11-11-11-11-11-11--10-10-10-10-10-10-----------12-12-12-12-12-12---------|
g|-9--9--9--9--9--9---10-10-10-10-10-10-----------12-12-12-12-12-12---------|
c|-9--9--9--9--9--9---10-10-10-10-10-10-----------12-12-12-12-12-12---------|
outro:
d|--------------------------------------------------------------------------|
a|--------------------------------------------------------------------------|
f|-------777-88-------777-88--------777-88----------------------------------|
c|-------xxx-xx-------xxx-xx--------xxx-xx----------------------------------|
g|-000---555-66-000---555-66--000---555-66----------------------------------|
c|-000----------000-----------000-------------------------------------------|
Comments