Four Tops - Walk Away Renee Chords & Tabs

 

Four Tops Chords & Tabs

Version: 1 Type: Bass Tab 1 rating
1 star 2 stars 3 stars 4 stars 5 stars
comments

Walk Away Renee Bass Tab

Walk Away Renee
Original Artists: The Left Banke
This Version: The Four Tops.  James Jamerson was credited as the
bassist on every track from the album that this version was
released from in 1967
Tabbed here by bass50611. Pleaseany comments e-mail me
goldenoldie.benson@sky.com

Intro:
G--------------------------|
D--------------------------|
A---5-4--------------------|
E-------7-5--555---5-555---|

Verse 1:
G---------------------------------------------------------------|
D---------------------------------------------------------------|
A---------------------------------------------------------------|
E---5-555-5---4-444-4---3-333-3---2-222-2---1-111-1---0-000-0---|

G---------------------------------------------------------------|
D-----------------------------------4---4-----------------------|
A---55-77-55-44-2222222---4-----77-7------44---5-555------777---|
E---------------------------5-5-----------------------555-------|

G--------------------------------------------------------------|
D-------4-6---4-4--4------------------------------77-----------|
A-----7-------------44---5-555---4-444---5-4-----7--7----------|
E---5----------------------------------------7-5-------5-555---|

Verse 2:
G---------------------------------------------------------------|
D---------------------------------------------------------------|
A---------------------------------------------------------------|
E---5-555-5---4-444-4---3-333-3---2-222-2---1-111-1---0-000-0---|

G----------------------------------------------------------------|
D-----------------------------------4---4------------------------|
A---55-44-55-44-2222222---4-----77-7------44---5-555-------777---|
E---------------------------5-5------------------------555-------|
[ Tab from: http://www.guitartabs.cc/tabs/f/four_tops/walk_away_renee_btab.html ]
G-------------------------------------------------------|
D-------4-6---4-4--4------------------------------77----|
A-----7-------------44---5-555---4-444---5-4-----7--7---|
E---5----------------------------------------7-5--------|

Bridge:
G--------------------------------------------------------------------|
D--------------------------------------------------------------------|
A---9--9-9---8-8-8---7--7-7---6-666---5--555---4--444---55-44-55-44--|
E-------9-------9--------9-------------------------------------------|

G---------------------------------------------------|
D-----------------------4---4-----------------------|
A---2222222---4-----77-7------44---5-555------777---|
E---------------5-5-----------------------555-------|

G--------------------------------------------------------------|
D-------4-6---4-4--4------------------------------77-----------|
A-----7-------------44---5-555---4-444---5-4-----7--7----------|
E---5----------------------------------------7-5-------5-555---|
Verse 3
G---------------------------------------------------------------|
D---------------------------------------------------------------|
A---------------------------------------------------------------|
E---5-555-5---4-444-4---3-333-3---2-222-2---1-111-1---0-000-0---|

G-------------------------------------------------------------|
D------------------------------------4--4---------------------|
A---55-77-55-44-2222222---4-----77--7-----44-5-555------777---|
E---------------------------5-5---------------------555-------|

G-------------------------------------------------------------|
D-------4-6---4-4--4------------------------------------------|
A-----7-------------44---5-555---4-444-----5----4-------------|
E---5------------------------------------------------7----5---|
Comments