Four Tops - Still Water Chords & Tabs

 

Four Tops Chords & Tabs

Version: 1 Type: Bass Tab 0 ratings
1 star 2 stars 3 stars 4 stars 5 stars
comments

Still Water Bass Tab

Still Water
Original Artists: The Four Tops
Bassist: Willie Weeks (Original Bassist: James Jamerson)

Tabbed here by bass50611.  Not exactly the same as James
version on the original recording but  a close second and
it does fit the original.
Taken from the CDs supplied with the book Standing on the
Shadows of Motown, The Life and Music of Legendary Bassist
James Jamerson.  Any comments e-mail me
goldenoldie.benson@sky.com

The Complete Song:

Riff 1:
    .         .          .             .
G----------0------------------------------2-3-------|
D---1---11-----------0-1-3---0-1-2-3----------------|
A-------------3---33-----------------0-1------1-1---|
E---------------------------------------------------|
[ Tab from: http://www.guitartabs.cc/tabs/f/four_tops/still_water_btab.html ]
Riff 2:
      .         .          . (bit quick here)
G------------0-----------------------------------------------|
D---0-1---11-----------0-1-3-----1-3-------1-3-----------0---|
A---------------3---33-------------------------------0-1-----|
E----------------------------11--------11--------11----------|

Riff 3:
    .         .          .             .
G----------0------------------------------2-3---------|
D---1---11-----------0-1-3---0-1-2-3--------------0---|
A-------------3---33-----------------0-1------1-1-----|
E-----------------------------------------------------|

Riff 3:
    .         .          .  (bit quick here)
G----------0----------------------------------------------|
D---1---11-----------0-1-3-----1-3-------1-3--------------|
A-------------3---33-------------------------------11-3---|
E--------------------------11--------11--------11---------|

HAVE FUN
Comments