Four Tops - Standing In The Shadows Chords & Tabs

 

Four Tops Chords & Tabs

Version: 1 Type: Bass Tab 0 ratings
1 star 2 stars 3 stars 4 stars 5 stars
comments

Standing In The Shadows Bass Tab

Standing In The Shadows Of Love
Original Artist: The Four Tops
Song Writers: Holland/Dozier/Holland
Bassist: James Jamerson
Tabbed by bass50611.
Hey all you Jamerson fans, this is a great song
As always listen for the Jamerson pauses.
Any coments e-mail me at goldenoldie.benson@sky.com
Have fun and hope you understand how I've tabbed it!

Intro & Chorus 1:
G--------------------------------------------------------|
D-----------------6-6----6---4-4---4-4---3--3--3---------|
A---1-1---11-0---6-6-6--6--------4---------3-3--3----0---|
E-------1------4-------4-------------------------1-4-----|

G---------------------------------------------------|
D-----------------6-6----6---44---44---3--3--33-3---|
A---1-1---11-0---6-6-6--6-------4--------3-3---3----|
E-------1------4-------4----------------------------|

Verse:
G---------------------------------------------------|
D---3-4-4-44---6-----------3-4-4-44---6-------------|
A--------4-------4---4-44-4-----4------4---4-44-4---|
E-------------------4-4--4----------------4-4--4----|
[ Tab from: http://www.guitartabs.cc/tabs/f/four_tops/standing_in_the_shadows_btab.html ]
G---------------------------------------------------|
D---3-4-4-44---6-----------3-4-4-44---6-------------|
A--------4-------4---4-44-4-----4------4---4-44-4---|
E-------------------4-4--4----------------4-4--4----|

G--------------------------------------------------------|
D---------------------------------------------------00---|
A---5-6-6-66-6----6-6-66-6-----1-1-11-1-----2-2---0------|
E------6-6--6-6----6-6--6-6-----1-1--1-1-----2-----------|

(play this twice)		  	    (third time)
G-----------------         ----------------------|
D-----------------         ----------------------|
A---1-1-11-1--1---  	      ---1-1-11-1--1-1---|
E----1-1--1-11----         ----1-1--1-11-1-------|

Chorus 2:
G----------------------------------------------------------------|
D-----------------------6-6----6-44---44-3---1-1-3---------------|
A---------0-1---1-0----6-6-6--6-----4---------3---3---0-11-1-0---|
E---111-4-----------4--------4---------------------1-4----1---4--|

G---------------------------------|
D----6-6----6-44-44---3--3-33-3---|
A---6-6-6--6----4-------3-3--3----|
E---------4-----------------------|

Play Verse for second Verse:

End of Second Verse and Back Into Third Verse:
G-------------------------|
D---------------------3---|
A---1-1-11-1--1-1---------|
E----1-1--1-11-1--111-----|

Play Verse For Third Verse:

Repeat Chorus to Fade:
Comments