Four Tops - I Cant Help Myself Chords & Tabs

 

Four Tops Chords & Tabs

Version: 1 Type: Bass Tab 2 ratings
1 star 2 stars 3 stars 4 stars 5 stars
comments

I Cant Help Myself Bass Tab

Song: I Can't Help Myself(Sugar Pie, Honey Bunch)
Artist: The Four Tops
Abum: Second Album (as well as every Four Tops greatest hits and good motown collection)
Standard tuning
By: Steve Jones

It's a real nice little motown classic, I'm none to sure on how to express timing in TABs but 
listen to the song and you'll get it



INTRO
G:-------------------------:
D:-------------------------:
A:-3------3-----------3----:
E:---3--5--------3--5------:     X6


THE REST OF THE SONG JUST REPEATS THIS SEQUENCE
[ Tab from: http://www.guitartabs.cc/tabs/f/four_tops/i_cant_help_myself_btab.html ]
G:-------------------------:
D:-------------------------:   
A:-3------3-----------3----:
E:---3--5--------3--5------:     X2

G:-------------------------:
D:-5------5-----------5----:
A:---5--7--------5--7------:    
E:-------------------------:     X2

G:-------------------------:----------------:
D:-------------------------:----------------:   
A:-5------5-----------5----:-5------5-----7-:
E:---5--7--------5--7------:---5--7---------:     

G:-------------------------:
D:-3------3-----------3----:
A:---3--5--------3--5------:
E:-------------------------:    

G:-------------------------:
D:-5-------------5--7----5-:
A:---5--7------------------:
E:-------------------------:     


THATS ALL FOLKS.
Comments