Four Tet - Slow Jam Chords & Tabs

 

Slow Jam Chords & Tabs

Four Tet Chords & Tabs

Version: 1 Type: Tab 0 ratings
1 star 2 stars 3 stars 4 stars 5 stars
comments

Slow Jam Tab

This is my first tab, and I think it sounds pretty clean.
The tuning is standard.



e:--------------------|------------------
B:-----1---1----1---1-|---1---1----1---1-
G:-------0--------0---|-----0--------0---
D:---3----------------|------------------
A:--------------------|-3----------------
E:--------------------|------------------

e:--------------------|------------------
B:-----1---1----1---1-|---1---1----1---1-
G:-------0--------0---|-----0--------0---
D:---0----------------|-2----------------
A:--------------------|------------------
E:--------------------|------------------
[ Tab from: http://www.guitartabs.cc/tabs/f/four_tet/slow_jam_tab.html ]
e:---------3----------|-------3----------
B:-----1--------1---1-|---1--------1---1-
G:-------0--------0---|-----0--------0---
D:---3----------------|------------------
A:--------------------|-3----------------
E:--------------------|------------------

e:---------3----------|-------3----------
B:-----1--------1---1-|---1--------1---1-
G:-------0--------0---|-----0--------0---
D:---0----------------|-2----------------
A:--------------------|------------------
E:--------------------|------------------




It sounds pretty nice, and even if its far off the song,
it still sounds pretty good. Peace out A-town

Jaret
tiny_bonzai_tree@hotmail.com
Comments