Fountains Of Wayne - Stacys Mom Chords & Tabs

 

Stacys Mom Chords & Tabs

Fountains Of Wayne Chords & Tabs

Version: 2 Type: Bass Tab 0 ratings
1 star 2 stars 3 stars 4 stars 5 stars
comments

Stacys Mom Bass Tab

Fountains of Wayne - "Stacy's Mom"
Bass

Standard Tuning, 4/4 time

(Come in with the vocals)
Intro (Play 4x):
G--------------------------------------------------------
D--------------------------------------------------------
A----------67--------------------------------------------
E-000555557--55555---------------------------------------

Verse (Stacy can I come over):
Play intro riff 8 times

Prechorus (You know I’m not the little boy…):
G----------------------------------------------------------
D----------------------------------------------------------
A----------------------------------------------------------
E-44444444555555554444444455555----------------------------

Chorus (Stacy’s Mom has got it goin’ on):
G--------------------------------------------
D--------------------------------------------
A—-47-------------------47-------------------
E-5--0--007—-7779—-9—--5--0—-007—-7779—-9—---
[ Tab from: http://www.guitartabs.cc/tabs/f/fountains_of_wayne/stacys_mom_btab_ver_2.html ]
G-----------------------------------
D-----------------------------------
A--47-------------------------------
E-5--0--008—-8899—-9—--5555555577777

Verse 2 (Intro): Don’t Play

Verse 2 (Stacy do you remember when I mowed your lawn?)
Exactly the same as verse 1

Prechorus

Chorus

Guitar solo Part:
G--------------------------------------------------
D--25-----------2--2---25--------------------------
A-3-------5--553------3---------2--2222222---------
E----3--33----------------3---33-------------------


G--------------------------------------------------
D--25----------------------------------------------
A-3-------5--5567--7--3333333322222222-------------
E----3--33-----------------------------------------

Last Chorus (Play 2x):
G-------------------------------------------
D--25------------2--2---25----------2---2---
A-3--------5--553------3-------5—553--------
E-----3--33---------------3--33-------------


G-------------------------------------------------
D---25--------------------------------------------
A-3--------5--5567--7--3333333355555555-----------
E-----3--33---------------------------------------


Second time, only play the final note (5 on A) 7 times, instead of 8.
Comments