Fountains Of Wayne - Mexican Wine Chords & Tabs

 

Mexican Wine Chords & Tabs

Fountains Of Wayne Chords & Tabs

Version: 1 Type: Bass Tab 0 ratings
1 star 2 stars 3 stars 4 stars 5 stars
comments

Mexican Wine Bass Tab

   
#---------------------------------PLEASE NOTE-----------------------------#
# This file is the author's own work and represents their interpretation  #
# of the song. You may only use this file for private study, scholarship, #
# or research.                                                            #
#-------------------------------------------------------------------------#

basstabs by Erwin Keijzer
(Erwinkeij@hotmail.com)
Fountains of wayne - Mexican wine


[Intro] (singing and bells) No bass!

Before the singing (after intro)
G|----------------|----------------|X2
D|4-4-4---4-4-4---|4-4-4---4-4-4---|
A|------4-------4-|------4-------4-|
E|----------------|----------------|

[Verse]                                                            
G|----------------|----------------|----------------|----------------|X2
D|4-4-4---4-4-4---|----------------|----------------|----------------|
A|------4-------4-|4-4-4---5-5-5---|6-6-6---4-4-4---|2-2-2---2-2-2-4-|
E|----------------|------4-------5-|------6-------4-|------2---------|

[Chorus]                                       And this twice
G|----------------|----------------|X3 ----------------|----------------|X2
D|4-4-4-----------|----------------|   ----------------|------4~--------|
A|------4-4-4-4---|2-2-2---2-2-2-4-|   6---6---4---4---|4-4-------------|
E|--------------4-|------2---------|   --6---6---4---4-|----------------|
[ Tab from: http://www.guitartabs.cc/tabs/f/fountains_of_wayne/mexican_wine_btab.html ]
[The no singing part]        
G|----------------|----------------|----------------|----------------|X2
D|----------------|5-5-5-5-5-5-5-5-|4-4-4-4-4-4-4-4-|3-3-3-3-3-3-3-3-|
A|3-3-3-3-3-3-3-3-|----------------|----------------|----------------|
E|----------------|----------------|----------------|----------------|

Full note up [Verse]
G|----------------|----------------|----------------|----------------|x2
D|6-6-6---6-6-6---|----------------|----------------|----------------|
A|------6-------6-|6-6-6---7-7-7---|8-8-8---6-6-6---|4-4-4---4-4-4-6-|
E|----------------|------6-------7-|------8-------6-|------4---------|

*Second time end with this instead of the last bar!* 
|----------------|----------------|
|----------------|----------------|
|4-4-4---4-4-4-4-|4-4-4-4-4-4-4-4-|
|------4---------|----------------|

[Introlike piece again] No Bass!

[Chorus](full note up)                                 And this twice
G|----------------|----------------|X3 ----------------|----------------|X2
D|6-6-6-----------|----------------|   ----------------|------6~--------|
A|------6-6-6-6---|4-4-4---4-4-4-6-|   8---8---6---6---|6-6-------------|
E|--------------6-|------4---------|   --8---8---6---6-|----------------|

[Ending] (After letting ring the last note of the chorus for ages)
G|----------------|----------------|X2
D|----------------|----------------|
A|999---999-------|11~~~-----------|
E|---999---999----|----------------|



:D
Comments