Fountains Of Wayne - Leave The Biker Chords & Tabs

 

Leave The Biker Chords & Tabs

Fountains Of Wayne Chords & Tabs

Version: 1 Type: Bass Tab 0 ratings
1 star 2 stars 3 stars 4 stars 5 stars
comments

Leave The Biker Bass Tab

Leave the Biker by Fountains of Wayne
Tabbed by Cody Westby

verses-
G----------------------------------------------------------------
D----------------------------------------------------------------
A-----3-3-5-3----------------------------------------------------
E-3-3---------3-3------------------------------------------------

Chourus (he's got his arm...)
G----------------------------------------------------------------
D----------------------------------------------------------------
A-----3-3-5-5-3-3------------------------------------------------
E-3-3------------------------------------------------------------
[ Tab from: http://www.guitartabs.cc/tabs/f/fountains_of_wayne/leave_the_biker_btab.html ]
G----------------------------------------------------------------
D----------------------------------------------------------------
A-----------------3-3-3-3-3-3-3-3--------------------------------
E-3-3-3-3-3-3-3-3------------------------------------------------

G----------------------------------------------------------------
D----------------------------------------------------------------
A-----5-5-3-3----------------------------------------------------
E-3-3---------3-3------------------------------------------------
bridge-
G----------------------------------------------------------------
D----------------------------------------------------------------
A-----5-5-7-5----------------------------------------------------
E-5-5---------5-5------------------------------------------------
then just do everything 2 frets up.

=========================================
Cody Westby, bassist of Mr. Jumbo

Comments