Foster The People - Pumped Up Kicks Chords & Tabs

 

Pumped Up Kicks Chords & Tabs

Foster The People Chords & Tabs

Version: 1 Type: Bass Tab 0 ratings
1 star 2 stars 3 stars 4 stars 5 stars
comments

Pumped Up Kicks Bass Tab

G |----------------5-8-8-8--5---------------------|
D |--------5-6-6-8-------------8-8-8-5-6----------|  
A |--8-8-8-------------------------------8--------|
E |-----------------------------------------------|
[ Tab from: http://www.guitartabs.cc/tabs/f/foster_the_people/pumped_up_kicks_btab.html ]
G |----------------5-8-8-8-10---------------------|
D |--------5-6-6-8-------------10-8-8-8-5-6-------|
A |--8-8-8----------------------------------8-----|
E |-----------------------------------------------|


Variations of these two lines are played throughout the whole song. 
Comments