Foster The People - Coming Of Age Chords & Tabs

 

Coming Of Age Chords & Tabs

Foster The People Chords & Tabs

Version: 3 Type: Tab 0 ratings
1 star 2 stars 3 stars 4 stars 5 stars
comments

Coming Of Age Tab

   
Hi! Decided to write tab of this amazing song . I am 100% sure is exactly, so ... Let's play :)



Intro
   F                 Gm             E            F         Gm           E
e|-5-5-8-5---6------6--5--3-3---3---3/10-10--3---5-5-8-5---6------6--5--3-3---3---3/10-10--3----|
B|-6-6-8-6---8--10--8--6--4-4-6-4---4/11-11--4---6-6-8-6---8--10--8--6--4-4-6-4---4/11-11--4----|
G|-5-5-5-5---7--10--7--5--3-3-6-3---3/10-10--3---5-5-5-5---7--10--7--5--3-3-6-3---3/10-10--3----|
D|----------------------------------------------------------------------------------------------|
A|----------------------------------------------------------------------------------------------|
E|----------------------------------------------------------------------------------------------|

Verse

F                                         Gm
Well, I see you standing there like a rabid dog
         E
And you got those crying eyes
F                Gm                         E
Makes me wanna surrender and wrap you in my arms

You know I try to live without regrets
I'm always moving forward and not looking back
But I tend to leave a trail of death while I'm moving ahead
So I'm stepping away

Pre-chorus


Ahhhh.... '               Cause I got nothing to say
e|----------------------------------------------|
B|----------------------------------------------|
G|-5--5-5--5--5--5-5-5--------------------------|
D|-5--5-5--5--5--5-5-5--5-7--7-7--7--7--7-7-7---|
A|-3--3-3--3--3--3-3-3--5-7--7-7--7--7--7-7-7---|
E|----------------------3-5--5-5--5--5--5-5-5---|


Chorus

Feels like, feels like it's coming It feels like, feels like I'm of coming of age

   F                 Gm             E            F         Gm           E
e|-5-5-8-5---6------6--5--3-3---3---3/10-10--3---5-5-8-5---6------6--5--3-3---3---3/10-10--3----|
B|-6-6-8-6---8--10--8--6--4-4-6-4---4/11-11--4---6-6-8-6---8--10--8--6--4-4-6-4---4/11-11--4----|
G|-5-5-5-5---7--10--7--5--3-3-6-3---3/10-10--3---5-5-5-5---7--10--7--5--3-3-6-3---3/10-10--3----|
D|----------------------------------------------------------------------------------------------|
A|----------------------------------------------------------------------------------------------|
E|----------------------------------------------------------------------------------------------|    x2


Solo

e|--------------------------------------------------------------------------------|
B|--------------------------------------------------------------------------------|
G|--------------------------------------------------------------------------------|
D|----------------------------------------10br--------8br-------------------------|
A|--------3----------5-8-5-----8/10----8------10-8-10-----8---10---6-5-3-1--------|
E|-1--3/5---5-3--5/8-------8-5------------------------------10----------------3-1-|


Verse 2
[ Tab from: http://www.guitartabs.cc/tabs/f/foster_the_people/coming_of_age_tab_ver_3.html ]
F                               Gm
And when my fear pulls me out to sea
                    E
And the stars are hidden by my pride and my enemies
F                   Gm                    E
I seem to hurt the people that I care the most

Just like an animal I protect my pride
When I'm too bruised to fight
And even when I'm wrong I tend to think I'm right
Well I'm bored at the game


Pre-chorus


Ahhhh.... '               Cause I got nothing to say
e|----------------------------------------------|
B|----------------------------------------------|
G|-5--5-5--5--5--5-5-5--------------------------|
D|-5--5-5--5--5--5-5-5--5-7--7-7--7--7--7-7-7---|
A|-3--3-3--3--3--3-3-3--5-7--7-7--7--7--7-7-7---|
E|----------------------3-5--5-5--5--5--5-5-5---|


Chorus

Feels like, feels like it's coming It feels like, feels like I'm of coming of age

   F                 Gm             E            F         Gm           E
e|-5-5-8-5---6------6--5--3-3---3---3/10-10--3---5-5-8-5---6------6--5--3-3---3---3/10-10--3----|
B|-6-6-8-6---8--10--8--6--4-4-6-4---4/11-11--4---6-6-8-6---8--10--8--6--4-4-6-4---4/11-11--4----|
G|-5-5-5-5---7--10--7--5--3-3-6-3---3/10-10--3---5-5-5-5---7--10--7--5--3-3-6-3---3/10-10--3----|
D|----------------------------------------------------------------------------------------------|
A|----------------------------------------------------------------------------------------------|
E|----------------------------------------------------------------------------------------------|    x2


Piano part.

F Gm E x4
F Gm

Outro

Feels like, feels like it's coming It feels like, feels like I'm of coming of age

   F                 Gm             E            F         Gm           E
e|-5-5-8-5---6------6--5--3-3---3---3/10-10--3---5-5-8-5---6------6--5--3-3---3---3/10-10--3----|
B|-6-6-8-6---8--10--8--6--4-4-6-4---4/11-11--4---6-6-8-6---8--10--8--6--4-4-6-4---4/11-11--4----|
G|-5-5-5-5---7--10--7--5--3-3-6-3---3/10-10--3---5-5-5-5---7--10--7--5--3-3-6-3---3/10-10--3----|
D|----------------------------------------------------------------------------------------------|
A|----------------------------------------------------------------------------------------------|
E|----------------------------------------------------------------------------------------------|    x4

oh oh ooooo oh oh ooooh ohoh...
   F                 Gm             E            F         Gm           E
e|-5-5-8-5---6------6--5--3-3---3---3/10-10--3---5-5-8-5---6------6--5--3-3---3---3/10-10--3----|
B|-6-6-8-6---8--10--8--6--4-4-6-4---4/11-11--4---6-6-8-6---8--10--8--6--4-4-6-4---4/11-11--4----|
G|-5-5-5-5---7--10--7--5--3-3-6-3---3/10-10--3---5-5-5-5---7--10--7--5--3-3-6-3---3/10-10--3----|
D|----------------------------------------------------------------------------------------------|
A|----------------------------------------------------------------------------------------------|
E|----------------------------------------------------------------------------------------------|    x2

Finall oh oh with out guitar :) x2

Well, thats all, hope you enjoy!!!
Comments