Fosh - Nobody Chords & Tabs

 

Nobody Chords & Tabs

Fosh Chords & Tabs

Version: 1 Type: Tab 0 ratings
1 star 2 stars 3 stars 4 stars 5 stars
comments

Nobody Tab

Author/Artist: F.O.S.H. 
Title: Nobody 
------------------------------------------------------------------------------ 
------------------------------------------------------------------------------ 
-------7--------------------2--2-2-2-2-2-2-2---------------------------------- 
-5-5-5-5--7-7-7-7--5-5-5-5--2--2-2-2-2-2-2-2---------------------------------- 
-5-5-5-5--7-7-7-7--5-5-5-5--0--0-0-0-0-0-0-0---------------------------------- 
----------5-5-5-5--3-3-3-3---------------------------------------------------- 
   INTRO                                                                       

------------------------------------------------------------------------------ 
------------------------------------------------------------------------------ 
-7-7-7-7-7-7-7---------------------------------------------------------------- 
-7-7-7-7-7-7-7-7-7-7-7-7-7-7-5-5-5-5-5-5-5-7-7-7-7-7-7-7---------------------- 
-5-5-5-5-5-5-5-7-7-7-7-7-7-7-5-5-5-5-5-5-5-7-7-7-7-7-7-7---------------------- 
---------------5-5-5-5-5-5-5-3-3-3-3-3-3-3-5-5-5-5-5-5-5---------------------- 
   VERSE & CHORUS- JOHNNY PLAY THIS ONLY CHANGING THE STRUM                    
[ Tab from: http://www.guitartabs.cc/tabs/f/fosh/nobody_tab.html ]
------------------------------------------------------------------------------ 
------------------------------------------------------------------------------ 
-7-7-7-7-7-7-7---------------------------6------------------------------------ 
-7-7-7-7-7-7-7-7-7/9\7-5-5/7\5-7-7-7-7-9-6------------------------------------ 
-5-5-5-5-5-5-5-7-7/9\7-5-5/7\5-7-7-7-7-9-4------------------------------------ 
---------------5-5/7\5-3-3/5\3-5-5-5-5-7-------------------------------------- 
   MONK PLAYS THE SAME AS JOHNNY THE FIRST 2 MEASURES THEN THIS TWICE          

------------------------------------------------------------------------------ 
------------------------------------------------------------------------------ 
-7-7-7--7-5------------------------------------------------------------6------ 
-7-7-7------7-5-------7-7-7--7-5---------5-5-5---5-3---------7-7-7-7-9-6------ 
-5-5-5-5--------7-5---7-7-7------7-5-----5-5-5-------5-3-----7-7-7-7-9-4------ 
--------------------7-5-5-5-5--------7-5-3-3-3-3---------5-3-5-5-5-5-7-------- 
   THEN THIS TWICE                                                             

------------------------------------------------------------------------------ 
------------------------------------------------------------------------------ 
-----------------------------------------------------6------------------------ 
-------------------------------------------7-7-7-7-9-6------------------------ 
-4-5-5-5-4-5-5-5-7-5-4-5-4-----------------7-7-7-7-9-4------------------------ 
---------------------------2-3-3-3-2-3-3-3-5-5-5-5-7-------------------------- 
   AND THIS DURING THE CHORUS TWICE                                            

------------------------------------------------------------------------------ 
------------------------------------------------------------------------------ 
-9\7-7-7-7-7-------------------------2-2-2-2-2-2------------------------------ 
-7\7-7-7-7-7-7-7-7-7-7-7-5-5-5-5-5-5-2-2-2-2-2-2------------------------------ 
-----5-5-5-5-7-7-7-7-7-7-5-5-5-5-5-5-0-0-0-0-0-0------------------------------ 
-------------5-5-5-5-5-5-3-3-3-3-3-3------------------------------------------ 
 THIS IS THE FASTER PART OF THE SOLO. JOHNNY AND MONK TRADE OFF PLAYING THIS   
Comments