Forty Foot Echo - Brand New Day Chords & Tabs

 

Brand New Day Chords & Tabs

Forty Foot Echo Chords & Tabs

Version: 6 Type: Tab 0 ratings
1 star 2 stars 3 stars 4 stars 5 stars
comments

Brand New Day Tab

Since noone was able to get the intro right, i thought id take a stab at writing my
first tab....so here goes. You can figure out the strum. Tuning is Drop D. If anyone
thinks i copied it from a book or something i didnt, im just really good at sitting
down and figuring out a song i want to play.

Intro.

6]--9---12-12---7-7----5-5-5-|
5]--9---12-12---7-7----5-5-5-|
4]--12--12-14---7-11---9-7-9-|
3]--x---x--x----x-x----x-x-x-|
2]--x---x--x----x-x----x-x-x-|
1]--x---x--x----x-x----x-x-x-|

Chorus. just simple bar chords (brackets are palm muted)

6]--5---x---7-7---Then at end of chorus---2-2--(2-2)-4h---5-|h
5]--5---5---7-7---------------------------2-2--(2-2)-4h---5-|h
4]--5---7---7-9---------------------------2-2--(2-2)-4h---5-|h
3]--x---x---x-x---------------------------x-x---x-x--x----x-|
2]--x---x---x-x---------------------------x-x---x-x--x----x-|
1]--x---x---x-x---------------------------x-x---x-x--x----x-|

Interlude before solo. played three times

6]--------------------|
5]--------------------|
4]--------------------|
3]--------------------|
2]--10-8-7h---10-8-7--|
1]--------------------|
[ Tab from: http://www.guitartabs.cc/tabs/f/forty_foot_echo/brand_new_day_tab_ver_6.html ]
Solo. (the x2.5 means to play whats in the brackets twice, then the first hammer on
16h14 once more) You can figure out the strum for the part at the end of the solo.

6]---------------------------------------------------------------------------|
5]--7h9-----------------------------5h7---7----------------------------------|
4]------9---11h12h11--9--7---7---7------7---9-7--(14-----14-----)x2.5--------|
3]-------------------------7---7-----------------(--16h14--18h14)x2.5--------|
2]---------------------------------------------------------------------------|
1]---------------------------------------------------------------------------|


6]----------------------------------------------------------------------------|
5]-------------------------------12--12h14h12--17-16-12-12h14h12-17-16-19-----|
4]-------------------------------x---x--x--x---x--x--x--x--x--x--x--x--x------|
3]--14--14----14------14--14-----14--14h16h14--19-18-14-14h16h14-19-18-21-----|
2]----15----15--15--15--15--15------------------------------------------------|
1]--------17------17----------------------------------------------------------|


Then its simply back into the chorus and the intro is the outro as well. And your
very welcome to anyone whos been waiting for an accurate tab of this song, cuz i
looked and didnt find any.
Comments