Forty Foot Echo - Brand New Day Chords & Tabs

 

Brand New Day Chords & Tabs

Forty Foot Echo Chords & Tabs

Version: 2 Type: Tab 0 ratings
1 star 2 stars 3 stars 4 stars 5 stars
comments

Brand New Day Tab

   
Artist : Forty Foot Echo
Song/Title : Brand New Day
Transcribed by : David Liew

Standard Tuning

I hope this would encourage others to tab out other songs from this 
band. This is the most accurate tab i've seen so far. Any 
questions/comments/corrections email me at del_2uh@yahoo.co.uk

Intro:

E ||-----------------------------------------------------------------|
B ||-----------------------------------------------------------------|
G ||-----------------------------------------4-4-44444---------222---|
D ||-10-7-7--7-777-/-10-12-12-1212-121212--5-5-5-55555--3-3-3333333--|
A ||-10-7-7--7-777-/-10-10-10-1010-101010--5-5-5-55555--3-3-3333333--|
E ||--8-5-5--5-555-/--8-10-10-1010-101010--3-3-3-33333--1-1-1111111--|

      "Never thought i'd say i'm sorry....   


Verse:

E ||-----------------------------------------------------------------|
B ||-----------------------------------------------------------------|
G ||---------------------------------------4-4-44444---------222-----|
D ||--7-7--7-777-/-10-12-12-1212-121212--5-5-5-55555--3-3-3333333----|
A ||--7-7--7-777-/-10-10-10-1010-101010--5-5-5-55555--3-3-3333333----|
E ||--5-5--5-555-/--8-10-10-1010-101010--3-3-3-33333--1-1-1111111----|

      "Now when i look out my window.....    


Chorus 1 (riff played with chorus 2 clean)

E ||--------------8------------------|      |--------------|
B ||-----8------------------8--------|      |--------------|
G ||---5------------------5----------|      |---7--9--10---|
D ||---------------------------------|  6x  |---7--9--10---|  
A ||---------7(8)----88r7------------|      |---5--7---8---|   
E ||---------------------------------|      |--------------|   

  "And I... I think i'll change my ways...


                  "Tomorrow's a new day..."
     (riff 1 played with violin and riff 3)
E ||--------------------------------|       |--------------------------|     
B ||--------------------------------|       |--------------------------|         
G ||---14----12---------------------|       |--14--12--14-14141414-14--|       
D ||------14----14-----14r----------|  3x   |--14--14--14-14141414-14--|      
A ||----------------15--------------|       |--------------------------|   
E ||--------------------------------|       |--------------------------|  


            (riff 3)
   |---------------------| 
   |---------------------|
   |---------------------|
   |---10-10-10-101010---|   
   |---10-10-10-101010---|   
   |----8--8--8--8-8-8---| 


Repeat verse 
(use whammy in certain parts)
"You said we'd take a little time...."


Chorus 2 (distortion this time)
[ Tab from: http://www.guitartabs.cc/tabs/f/forty_foot_echo/brand_new_day_tab_ver_2.html ]
E ||----------------------------|          |-----------------|    
B ||----------------------------|          |-----------------|    
G ||--5-555-/-9--7-7-777-777----|          |---7--9--10------|  
D ||--5-555-/-9--7-7-777-777----|   3x     |---7--9--10------|     
A ||--3-333-/-7--5-5-555-555----|          |---5--7---8------|
E ||----------------------------|          |-----------------|    

   "And I.. I think I changed my ways....


                  "Tomorrow's a new day..."
     (riff 2 played with violin and riff 4)            
E ||--------------------------------|           
B ||--------------------------------|                
G ||---12------------12-------------|              
D ||------15-14--------1514---------|  4x   
A ||-------------15-----------------|       
E ||--------------------------------|       


                       (riff 4)
   |---------------------|-------------------------| 
   |---------------------|-------------------------|
   |---------------------|----------------22222----|
   |---10-10-10-101010---|--5-77777777--3-33333----| 
   |---10-10-10-101010---|--5-55555555--3-33333----|
   |----8--8--8--8-8-8---|--3-33333333--1-11111----|



Solo (Played with power chords)

         A5             C5

E ||-----------------------------------
B ||-----------------------------------
G ||-----------------------------------
D ||------------10(9)-7------10--10----
A ||---5(7)-7-----------10-10--10------
E ||--------5--------------------------

                        G5

  |------------------------------------------------
  |-------------------------12----13--12--13--12---
  |---------------------12----12----12--12--12-----
  |----------12r10----12--12----12-----------------
  |---7-7/10-10~~~~10-10~~~~~~~~~~~~~~~~~~~~~~~~---
  |------------------------------------------------

           F5

  |-------------------------------------------------------------
  |---------20--------20----------------------------------------
  |-----17----17--17----17--17----12-1212121212-12121212-1212---
  |--/17--17----17--17----17------14-1414141414-14141414-1414---
  |-------------------------------------------------------------
  |-------------------------------------------------------------

  |------------------------------------------------------------
  |--/13-12-------------------------------------/13-12---------
  |--------12-12(14)-121212-1212121212-12121212--------14-12---
  |------------------141414-1414141414-14141414----------------
  |------------------------------------------------------------
  |------------------------------------------------------------


Repeat Chorus 2
"And I...I think I changed my ways....


Repeat verse at the end
"Never thought i'd say i'm sorry...



( ) = hammer/release
  r = release
  ~ = hold/vibrato
  / = slide

Comments