Format - Tie The Rope Chords & Tabs

 

Tie The Rope Chords & Tabs

Format Chords & Tabs

Version: 1 Type: Tab 0 ratings
1 star 2 stars 3 stars 4 stars 5 stars
comments

Tie The Rope Tab

   
                        TIE THE ROPE - THE FORMAT
 
Email: XxStock7xX@aol.com
Tuning: Standard
 
 Intro
                C
e|--------------|---------------|
B|--------------|---------------|
G|101010-999-77-|101010-999-77-.|
D|-x-x-x-xxx-xx-|-x-x-x-xxx-xx-.|
A|-8-8-8-777-55-|-8-8-8-777-55--|
E|--------------|---------------|

Bass part (listen for timing)
               A                           C
e|-------------|-------------|-------------|-------------|
B|-------------|-------------|-------------|-------------|
G|-------------|-------------|-------------|-------------|
D|-------------|-------------|-------------|-------------|
A|-------------|-------------|---3-3---3-3-|---3-3---3-3-|
E|-3-5-5-3-5-5-|-3-5-5-3-5-5-|-5-----5-----|-5-----5-----|
               G                           F
e|-------------|-------------|-------------|-------------|
B|-------------|-------------|-------------|-------------|
G|-------------|-------------|-------------|-------------|
D|-------------|-------------|-------------|-------------|
A|-------------|-------------|-------------|-------------|
E|-5-3-3-5-3-3-|-5-3-3-5-3-3-|-1-1-1-1-1-1-|-1-1-1-1-1-1-|
[ Tab from: http://www.guitartabs.cc/tabs/f/format/tie_the_rope_tab.html ]
Guitar part
                             C             
e|-------------|-------------|-------------|-------------|
B|-------------|-------------|-------------|-------------|
G|-------------|-------------|-------------|-------------|
D|-5-----------|-5-----------|-5-----------|-5-----------|
A|-3-----------|-3-----------|-3-----------|-3-----------|
E|-------------|-------------|-------------|-------------|
               A                           F
e|-------------|-------------|-------------|-------------|
B|-------------|-------------|-------------|-------------|
G|-------------|-------------|-------------|-------------|
D|-------------|-------------|-------------|-------------|
A|-7-----------|-------------|-3-----------|-------------|
E|-5-----------|-------------|-1-----------|-------------|

Interlude
                C
e|--------------|--------------|
B|--------------|--------------|
G|101010-999-77-|101010-999-77-|
D|-x-x-x-xxx-xx-|-x-x-x-xxx-xx-|
A|-8-8-8-777-55-|-8-8-8-777-55-|
E|--------------|--------------|

Ending
          C
e|-----------------|
B|-----------------|
G|-----5-------5---|
D|---5---5---5---5-|x16
A|-3-------3-------|
E|-----------------|
                 C
e|---------------|-------------------|
B|---------------|-------------------|
G|-0-5-7-0-5-7-9-|-0-5-77-0-5-77-55-.|
D|---------------|------------------.|
A|---------------|-------------------|
E|---------------|-------------------|
                 A
e|---------------|------------------|
B|---------------|------------------|
G|-0-5-7-0-5-7-9-|-0-5-77-0-5-77-55-|
D|---------------|------------------| 
A|---------------|------------------|
E|---------------|------------------|
                 F
e|---------------|------------------|
B|---------------|------------------|
G|-0-5-7-0-5-7-9-|-0-5-77-0-5-77-55-|
D|---------------|------------------| 
A|---------------|------------------|
E|---------------|------------------|

 End on C

 http://www.theformat.com
 http://wormsoftheearth.com/theformat/
Comments