Format - First Single Chords & Tabs

 

First Single Chords & Tabs

Format Chords & Tabs

Version: 2 Type: Tab 0 ratings
1 star 2 stars 3 stars 4 stars 5 stars
comments

First Single Tab

   
-------------------------------------------------------------------------------
			     FIRST SINGLE - The Format
-------------------------------------------------------------------------------
Tabbed by: Spencer Riner
Email: zazentown@hotmail.com

Tuning: Standard

The other versions of this song are just chords. I think this is pretty
accurate for the intro and stuff. If you have questions, comments, or 
corrections then email me or somethin. 

Enjoi.

INTRO:

e|---0---0---0---0---0---0---0---0---0---0---4---0---0---0-4-2---------------|
B|-4---4---5---5---4---4---5---5---2---0---2---0---5---5-------4-5-----------|
G|---------------------------------------------------------------------------|
D|---------------------------------------------------------------------------|
A|---------------------------------------------------------------------------|
E|---------------------------------------------------------------------------|

VERSE 1:


    E   C#m   A    B

e|--0----0----0----2----|
B|--0----5----2----4----|
G|--1----6----2----4----|
D|--2----6----2----4----|
A|--2----4----0----2----|
E|----------------------|


    E     C#m                            A               E

(Intro)  I can't stand to think about a heart so big it hurts like hell  

 C#m                              A                    E

Oh my God I gave my best but for three whole years to end like this

C#m            A    E       C#m             A      E 
[ Tab from: http://www.guitartabs.cc/tabs/f/format/first_single_tab_ver_2.html ]
Do you want to fall apart, I can't stop if you can't start

C#m            A    E       C#m                            B             A

Do you want to fall apart, well I could if you can try to fix what I've undone,

                       E

Cause I hate what I've become


CHORUS:


E                   B

You know me, or you think you do, you just don't seem to see,

A                                       C#m               B

I've been waiting, all this time to be, somethin I can't define

E                        B                                    A

So let's cause a scene, clap our hands and stomp our feet or somethin,

                      C#m                 B 

Yea somethin, I just gotta get myself over me


(Intro is played all throughout the second verse, too.)

VERSE 2 (lyrics at the bottom) is the same as verse 1.



CHORUS



BRIDGE: Just repeat this little riff for the whole bridge.


e|-7-----------7-------------------------------------------------------------|
B|----5--7--5-----5--7--5----------------------------------------------------|
G|---------------------------------------------------------------------------|
D|---------------------------------------------------------------------------|
A|---------------------------------------------------------------------------|
E|---------------------------------------------------------------------------|


After that, he just goes into the chorus again, and then that's it. 
===============================================================================
Comments