Format - First Single Chords & Tabs

 

First Single Chords & Tabs

Format Chords & Tabs

Version: 1 Type: Tab 0 ratings
1 star 2 stars 3 stars 4 stars 5 stars
comments

First Single Tab

   
----------------------------------------------------------------------------
	            The First Single - The Format
----------------------------------------------------------------------------
Tabbed by: Brad Smith	
Email: NewFoundSoCo@hotmail.com

I'm sure this isn't exactly how it's supposed to be played, but I promise that
this will sound good on an acoustic guitar if you play the right rhythm.  Sorry,
no intro- I broke my high E string so I can't figure it out quite yet, maybe I'll
fix it later?   We'll see...but these are the chords- pretty simple.

Tuning: Standard

Verse 1

e|-------------------------------------------------------------------------|
B|-------------------------------------------------------------------------|
G|--9-9-9-9-9-9-9-9-9-9-9-9-9-9-9-9-9-9-9-9-9-9-9-9-9-9-9-9-9-9-9----------|
D|--9-9-9-9-9-9-9-9-9-9-9-9-9-9-9-9-9-9-9-9-9-9-9-9-9-9-9-9-9-9-9----------|
A|--7-7-7-7-7-7-7-7-7-7-7-7-7-7-7------------------------------------------|
E|--------------------------------9-9-9-9-9-9-9-9-7-7-7-7-7-7-7-7----------|
    E                             C#              B                         
  "I can't stand to think about a heart so big it hurts like hell"   

e|-------------------------------------------------------------------------|
B|-------------------------------------------------------------------------|
G|--9-9-9-9-9-9-9-9-9-9-9-9-9-9-9-9-9-9-9-9-9-9-9-9-9-9-9-9-9-9-9----------|
D|--9-9-9-9-9-9-9-9-9-9-9-9-9-9-9-9-9-9-9-9-9-9-9-9-9-9-9-9-9-9-9----------|
A|--7-7-7-7-7-7-7-7-7-7-7-7-7-7-7------------------------------------------|
E|--------------------------------9-9-9-9-9-9-9-9-7-7-7-7-7-7-7-7----------|
    E                             C#              B                         
  "Oh my God I gave my best but for three whole years to end like this"

e|-------------------------------------------------------------------------|
B|-------------------------------------------------------------------------|
G|--9-9-9-9-9-9-9-9-9-9-9-9-9-9-9-9-9-9-9-9-9-9-9-9-9-9-9-9-9-9-9----------|
D|--9-9-9-9-9-9-9-9-9-9-9-9-9-9-9-9-9-9-9-9-9-9-9-9-9-9-9-9-9-9-9----------|
A|--7-7-7-7-7-7-7-7-7-7-7-7-7-7-7------------------------------------------|
E|--------------------------------9-9-9-9-9-9-9-9-7-7-7-7-7-7-7-7----------|
    E                             C#              B                    
   "Do you want to fall apart?  I can't stop if you can't start"
[ Tab from: http://www.guitartabs.cc/tabs/f/format/first_single_tab.html ]
e|-------------------------------------------------------------------------|
B|-------------------------------------------------------------------------|
G|--9-9-9-9-9-9---------9-9-9-9-9-9-9-9-9-9-9-9-9-9-9-9-9-9-9-9-9-9-9-9-9-9|
D|--9-9-9-9-9-9---------9-9-9-9-9-9-9-9-9-9-9-9-9-9-9-9-9-9-9-9-9-9-9-9-9-9|
A|--7-7-7-7-7-7-------------------------0-0-0-0-0-0-0-0-0-0-0-0-0-0-0-0-0-0|
E|----------------------7-7-7-7-7-7-7-7------------------------------------|
    E                   B               A                                  
   "Do you want...       ...fix what I've undone 'cause I hate what I've become"



Chorus

e|-------------------------------------------------------------------------|
B|-------------------------------------------------------------------------|
G|--1-1-1-1-1-1-1-1-1-1-4-4-4-4-4-4-4-4-4-4-4-4-4-4-4-4-4-4-4-4------------|
D|--2-2-2-2-2-2-2-2-2-2-4-4-4-4-4-4-4-4-4-4-4-4-4-4-4-4-4-4-4-4------------|
A|--2-2-2-2-2-2-2-2-2-2-2-2-2-2-2-2-2-2-2-2-2-2-2-2-2-2-2-2-2-2------------|
E|-------------------------------------------------------------------------|
    E                   B                                             
   "You know me or you think you do, you just don't seem to see"

e|-------------------------------------------------------------------------|
B|-------------------------------------------------------------------------|
G|--2-2-2-2-2-2-2-2-2-2-2-2-2-2-2-2-2-2-2-6-6-6-6-6-6-4-4-4-4-4-4----------|
D|--2-2-2-2-2-2-2-2-2-2-2-2-2-2-2-2-2-2-2-6-6-6-6-6-6-4-4-4-4-4-4----------|
A|--0-0-0-0-0-0-0-0-0-0-0-0-0-0-0-0-0-0-0-4-4-4-4-4-4-2-2-2-2-2-2----------|
E|-------------------------------------------------------------------------|
    A                                     C#          B                     
   "I've been waiting all this time to be something I can't define"

e|-------------------------------------------------------------------------|
B|-------------------------------------------------------------------------|
G|--1-1-1-1-1-1-1-1-1-1-1-1-4-4-4-4-4-4-4-4-4-4-4-4-4-4-4-4-4--------------|
D|--2-2-2-2-2-2-2-2-2-2-2-2-4-4-4-4-4-4-4-4-4-4-4-4-4-4-4-4-4--------------|
A|--2-2-2-2-2-2-2-2-2-2-2-2-2-2-2-2-2-2-2-2-2-2-2-2-2-2-2-2-2--------------|
E|-------------------------------------------------------------------------|
    E                       B                                               
   "So let's cause a scene, clap our hands and stomp our feet or..."

e|-------------------------------------------------------------------------|
B|-------------------------------------------------------------------------|
G|--2-2-2-2-2-2-2-2-2-2-2-2-2-2-2-2-2-2-2-6-6-6-6-6-6-6-4-4-4-4-4-4--------|
D|--2-2-2-2-2-2-2-2-2-2-2-2-2-2-2-2-2-2-2-6-6-6-6-6-6-6-4-4-4-4-4-4--------|
A|--0-0-0-0-0-0-0-0-0-0-0-0-0-0-0-0-0-0-0-4-4-4-4-4-4-4-2-2-2-2-2-2--------|
E|-------------------------------------------------------------------------|
    A                                     C#            B                  
   "...something, yeah something, I've just got to get myself over me"


2nd Verse same as 1st

Bridge chords:
E - - - - - B - - A


Thanks-God Bless

============================================================================
Comments