Forgotten Hero - Selective Chords & Tabs

 

Selective Chords & Tabs

Forgotten Hero Chords & Tabs

Version: 1 Type: Chords 0 ratings
1 star 2 stars 3 stars 4 stars 5 stars
comments

Selective Chords

   
hey this is jay, from forgotten hero, its our song, selective hearing, enjoy it people!

G                        D                    Em                    C9
e-----3-------x10--------2-------x10------0------x10--------3-------- x10-------------
b-----3--------^----------3--------^--------0--------^---------3--------- -^--------------
g-----0--------^----------2--------^--------0--------^---------0---------- ^--------------
D-----0-------^----------0--------^--------2--------^----------2--------- ^--------------
A---- 2-------^----------x--------^--------2--------^----------3--------- -^-------------
E---- 3-------^----------x--------^--------0--------^----------x----------^--------------(x11)
VERSE

e------------------------------------------------------ -----------------------
b-------------------------------------------------------------- ---------------
g------------------------------------------------------------------------------
D------5--------------7---------------9-----------------10------------------
A------5--------------7---------------9-----------------10------------------
E---- --3-----x10----5-----x10----- --7------x10-----------8-------x10-------(x1)
CHORUS

[ Tab from: http://www.guitartabs.cc/tabs/f/forgotten_hero/selective_crd.html ]
G                        D                    Em                    C9
e-----3-------x10--------2-------x10------0------x10--------3-------- x10-------------
b-----3--------^----------3--------^--------0--------^---------3--------- -^--------------
g-----0--------^----------2--------^--------0--------^---------0---------- ^--------------
D-----0-------^----------0--------^--------2--------^----------2--------- ^--------------
A---- 2-------^----------x--------^--------2--------^----------3--------- -^-------------
E---- 3-------^----------x--------^--------0--------^----------x----------^--------------(x8)
VERSE

e------------------------------------------------------ -----------------------
b-------------------------------------------------------------- ---------------
g------------------------------------------------------------------------------
D------5--------------7---------------9-----------------10------------------
A------5--------------7---------------9-----------------10------------------
E---- --3-----x10----5-----x10----- --7------x10-----------8-------x10-------(x1)
CHORUS

G                        D                    Em                    C9
e-----3-------x10---------2-------x10--------0------x10--------3-------- x10-------------
b-----3--------^----------3--------^--------0--------^---------3--------- -^--------------
g-----0--------^----------2--------^--------0--------^---------0---------- ^--------------
D-----0-------^----------0--------^---------2--------^----------2--------- ^--------------
A---- 2-------^----------x--------^---------2--------^----------3--------- -^-------------
E---- 3-------^----------x--------^---------0--------^----------x----------^--------------(x2)
VERSE
(let it ring)
Comments