Forgive Durden - Beware The Jub Jub Bird And Shun The Frumious Bandersnatch Chords & Tabs

 

Beware The Jub Jub Bird And Shun The Frumious Bandersnatch Chords & Tabs

Forgive Durden Chords & Tabs

Version: 1 Type: Tab

Beware The Jub Jub Bird And Shun The Frumious Bandersnatch Tab

hey... this is the first tab that i make so it might not be perfect but ive played
it with the song and it doesnt sound like crap... so i guess the notes are good
its really easy to play but the song is fast so...
if u got any kestions or anything: hey_dudy@hotmail.com
[ Tab from: http://www.guitartabs.cc/tabs/f/forgive_durden/beware_the_jub_jub_bird_and_shun_the_frumious_bandersnatch_tab.html ]
|-----------------------------------------------|
|------------------------------4-4-2-2-1-1------|
|------------------------------------------3-3--|
|-----------------------------------------------|
|-----------1-3-3--4-3-1------------------------|
|-1-1-1-3-4--------------4-3-3------------------|

|-----------------------------------------------|
|------------------------------4-4-2-2-1-1------|
|------------------------------------------3-3--|
|-----------------------------------------------|
|-----------1-3-3--4-3-1------------------------|
|-1-1-1-3-4--------------4-3-3------------------|


|-----------4-3-8--|
|------------------|
|------------------|
|------------------|
|------3-4---------|
|-1-1--------------|

http://www.forgivedurden.com/