Foreverdown - Like A Dream Chords & Tabs

 

Like A Dream Chords & Tabs

Foreverdown Chords & Tabs

Version: 1 Type: Tab 0 ratings
1 star 2 stars 3 stars 4 stars 5 stars
comments

Like A Dream Tab

Song:"Like A Dream"
Artist:foreverDOWN
Album:"You Are Beautiful EP" (2003) and "Life Alone Is No Life At All" (2004)
Tuning: standard

Intro (just the first part...You can figure out the rest): 
E :------------------------------------------------| 
B :------------------------------------------------| 
G :--------------------------------------------4---| 
D :----2-2/4--4/6-4/2-----------2-2/4---4/6-4/2----| 
A :---2---------------0------2---------------------| 
E :-0----------------------0-----------------------| 

Intro Continued: 
E :-------0---------|-------0---------|------0----------| 
B :-------0---------|-------0---------|------0----------| 
G :-------6---------|-------4---------|------2----------| 
D :-------6---------|-------4---------|------2----------| 
A :-------4---------|-------2---------|------0----------| 
E :-----------------|-----------------|-----------------| 
[ Tab from: http://www.guitartabs.cc/tabs/f/foreverdown/like_a_dream_tab.html ]
Verse: I'll Hold on to tonight til the moonlight fades from your eyes 
E :------0----------|------0----------|-------0---------|---0-----0----| 
B :------0----------|------0----------|-------0---------|---0-----0----| 
G :------1----------|------4----------|-------6---------|---4-----2----| 
D :------2----------|------4----------|-------6---------|---4-----2----| 
A :------2----------|------2----------|-------4---------|---2-----0----| 
E :-----------------|-----------------|-----------------|--------------| 

Chorus: The Stars in your eyes are the only thing I see 
E :-----0-----x----------0---------------0-----0-----0-------| 
B :-----0-----x----------0---------------0-----0-----0-------| 
G :-----1-----4----------2---------------6-----4-----2-------| 
D :-----2-----4----------2---------------6-----4-----2-------| 
A :-----2-----2----------0---------------4-----2-----0-------| 
E :----------------------------------------------------------| 

Bridge:
E :-----0-----0----0----0----0-----0-------| 
B :-----0-----0----0----0----0-----0-------| 
G :-----2-----4----6----9----4-----2-------| 
D :-----2-----4----6----9----4-----2-------| 
A :-----0-----2----4----7----2-----0-------| 
E :----------------------------------------| 
Comments