Foreigner - Feels Like The First Time Chords & Tabs

 

Feels Like The First Time Chords & Tabs

Foreigner Chords & Tabs

Version: 1 Type: Tab 0 ratings
1 star 2 stars 3 stars 4 stars 5 stars
comments

Feels Like The First Time Tab

   
Artist: Foreigner
Song: Feels like the first time
Album: The very best and beyond
Tabbed by: E-p0rt

Full Credit goes to the original creators of the song "Foreigner". This tab was transcribed by me completely by ear.
Should be 98% correct.

Intro:
======

e|--------------------------------------------
B|-------------------------------------------- 
G|-/4-----4----4----4-/-2-----2~~~--2--2---2-- 
D|-/5-----5----5----5-/-3-----3~~~--2--2---2-- 
A|-------------------------------------------- 
E|-------3------3-----------3------------3----

-------------------------------|
-------------------------------|
--2~----2--2----4~~------------|
--2~----2--2----5~~-----0-2-3--| 
-------------------------------|
-----3-------3---------------3-| 

Repeat Intro 2x 
Then:


Verse:
======

e|-3---------------|
B|-3---------------|
G|-4---------------|
D|-5---------------|
A|-5---------------|
E|-3---------------|
I would climb any mountain....

PreChorusA
e|-----------------------------|
B|-----------------------------|
G|--7---7-----7---6---6-----6--|
D|--7---7-----7---7---7-----7--|
A|--7---7-----7---7---7-----7--|
E|--5------5------5------5-----|
..to me

Repeat 1x
Then:


PreChorusB
e|-------------------r---------|
B|-------------------r---------|
G|--9---9-----9---8--r-8-----8-|
D|--9---9-----9---9--r-9-----9-|
A|--9---9-----9---9--r-9-----9-|
E|--7------7------7--r----7----|

Repeat 1x up to the r's
Then:
[ Tab from: http://www.guitartabs.cc/tabs/f/foreigner/feels_like_the_first_time_tab.html ]
Chorus:
1 2 3 4 1
e|---------------------------------------------------------------|
B|---------------------------------------------------------------|
G|------------------2---2~~---2-2---2--2~-----2-2----4-----------|
D|--10--5-----------3---3~~---2-2---2--2~-----2-2----5---0-2-3---|
A|--10--5--------------------------------------------------------|
E|--8---3-------------3-----------3--------3------3------------3-|

Play Once, Then play intro one time
Then:

e|--3--| |-------3~|
B|--3--| |-------3~|
G|--4--| After a few measures play: |-------4~|
D|--5--| |-------5~|
A|--5--| |-------5~|
E|--3--| |-0-1-2-3~|

While the verse progresses play this:

e|-----------------------|
B|-----------------------|
G|-----------------------|
D|-----------------------|
A|-----------------------|
E|-3--3--33-33--3-3-3-3--|

After the verse is over go back to:

PreChorusA
PreChorusB

Then:

e|--------| |-----------------------|
B|--------| |-----------------------|
G|--------| |-----------------------|
D|--------| |-----------------------|
A|-----5--| |-/7---5----------------|
E|-5-7----| |-----------8----7------|

Repeat 3x Then:

e|----------------------------------------------|
B|----------------------------------------------|
G|----------------------------------------------|
D|----------------------------------------------|
A|-10-10-10-10-10-10-10-10-10-10-10-10-10-10-10-|
E|-8--8--8--8--8--8--8--8--8--8--8--8--8--8--8--|

Go to Chorus...

Solo
=====

Guitar 1:

e|-----------------------------------------------|
B|-----------------------------------------------|
G|-10p7p0-(8x)-9p6p0-(8x)-8p5p0-(12x)-7p4p0-(4x)-|
D|-----------------------------------------------|
A|-----------------------------------------------|
E|-----------------------------------------------|

Guitar 2:

e|-----3----3----3----3------3----3----3--5b7-3----------------|
B|-----------------------------------------------5b6-3---------|
G|--3/4--2/3--1/2--3/4----3/4--2/3--1/2----------------4-2p0---|
D|-----------------------------------------------------------2-|
A|-------------------------------------------------------------|
E|-------------------------------------------------------------|

Go back to Chorus

Comments