Foreigner - Blue Morning Blue Day Chords & Tabs

 

Blue Morning Blue Day Chords & Tabs

Foreigner Chords & Tabs

Version: 1 Type: Tab 0 ratings
1 star 2 stars 3 stars 4 stars 5 stars
comments

Blue Morning Blue Day Tab

   
Blue Morning, Blue Day-

One of my favorite Foreigner songs, hope you enjoy 

Standard Tuning- EADGBE
						               (2nd time 							        								only)
Guitar 1, Riff A (Play Twice)                                    End Riff A
Bm                    B/D                 Bm/F#             G7     
|--------------------|-------------------|--------------------|-----------|
|--------------------|-------------------|--------------------|-----------|
|--------------------|-------------------|--------------------|-----------|
|--------------------|-------------------|--------------------|-----------|
|--------------------|-------------------|-9-8-9-------8-9-10-|---8--7----|
|-7-6-7--------6-7-9-|-10-9-10------9-10-|--------------------|--------10-|

Guitar 2     (doubles Guitar 1 2nd time)
|--------------------|-------------------|--------------------|-----------|
|--------------------|-------------------|--------------------|---------15|
|--------------------|-------------------|--------------------|-/16-------|
|--------------------|-------------------|-16-15-16---15-16-17|-------17--|
|-14-13-14---13-14-16|-17-16-17----16-17-|--------------------|-----------|
|--------------------|-------------------|--------------------|-----------|

Verse 1: 
F#                  Bm            A                     G
Out in the Street; it's six a.m., another sleepless night.
F#                   Bm                        A                               G  
Three Cups of coffee, but I can't clear my head, from what went down last night.   I

Guitar 1
F#                   Bm                A                            G
|--------------------|-----------------|----------------------------|------------|
|--------------------|-----------------|----------------------------|------------|
|--------------------|-----------------|----------------------------|------------|
|--------------------|-----------------|----------------------------|------------|
|------------1-------|-2-----5---2-----|---------------4------------|------2---5-|
|--2-----------------|-----------------|-5--------------------------|-3----------|
know we both have our  own little ways,  but somehow we keep it together.

F#                             Bm                 A                       G          F#
                                                                            p.m.|---|  |----|
|------------------------------|------------------|----------------------|------------------|
|------------------------------|------------------|----------------------|------------------|
|------------------------------|------------------|----------------------|------------------|
|------------------------------|------------------|----------------------|------------------|
|----------------1-------------|-2-----5---2------|------------4---------|-----------4--0-0-|
|--2---------------------------|------------------|-5--------------------|-3-----0-0-2------|
You hear me talk, but you don't hear what I say, I guess it don't even matter.

First Chorus: 
Bm              G7              F#sus4     F#7             Bm
       p.m.|---|       p.m.|---|                               ~~~~~~  
|-2------------|-3-------------|-2----------2-------|------------------|
|-3------------|-3-------------|-2----------2-------|------------------|
|-4------------|-4-------------|-4----------3-------|------------------|
|-4------------|-3-------------|-2----------2-------|------------------|
|-2------------|-5-------------|-4----------4-------|---------2-------0|
|-----------2-2|-3----------0-0|-2----------2-------|--5^1/4-----------|
Blue morning,   blue day.       Won't you see things   my    Way
                               
Bm              G7              F#sus4     F#7             Bm
       p.m.|---|       p.m.|---|                               ~~~~~~  
|-2------------|-3-------------|-2----------2-------|------------------|
|-3------------|-3-------------|-2----------2-------|------------------|
|-4------------|-4-------------|-4----------3-------|------------------|
|-4------------|-3-------------|-2----------2-------|------------------|
|-2------------|-5-------------|-4----------4-------|---------2--------|
|-----------2-2|-3----------0-0|-2----------2-------|--5^1/4-----------|
Blue morning.   Can't you see,  what your love has    done to me. 

Guitar 2  (Guitar 1 plays Riff A)
Bm                   B/D                 Bm/F#            G7
|--------------------|-------------------|--------------------|-----------|
|--------------------|-------------------|--------------------|-----------|
|--------------------|-------------------|--------------------|-----------|
|--------------------|-------------------|-16-15-16---15-16-17|-----------|
|-14-13-14---13-14-16|-17-16-17----16-17-|--------------------|-----------|
|--------------------|-------------------|--------------------|-----------|

Verse 2:
Guitar 1
F#                   Bm                    A                           G
|--------------------|---------------------|---------------------------|------------|
|--------------------|---------------------|---------------------------|------------|
|--------------------|---------------------|---------------------------|------------|
|--------------------|---------------------|---------------------------|------------|
|------------1-------|-2------5-----2------|---------------4-----------|------2---5-|
|--2-----------------|---------------------|-5-------------------------|-3----------|
I've always listened  to your point of view. My ways, I've tried to mend.

F#                  Bm                A                                G
|-------------------|-----------------|--------------------------------|------------|
|-------------------|-----------------|--------------------------------|------------|
|-------------------|-----------------|--------------------------------|------------|
|-------------------|-----------------|--------------------------------|------------|
|------------1------|-2-----5---2-----|-------------------4------------|------2---5-|
|--2----------------|-----------------|-5------------------------------|-3----------|
And I've always been a patient man,    but my patience has reached its end.

F#                   Bm                A                            G
|-----------------------|---------------------|----------------------------|-----------------|
|-----------------------|---------------------|----------------------------|-----------------|
|-----------------------|---------------------|----------------------------|-----------------|
|-----------------------|---------------------|----------------------------|-----------------|
|-------------1---------|-2------5-----2------|---------------4------------|---------2-----5-|
|--2--------------------|---------------------|-5--------------------------|-3---------------|
You tell me your leaving, you tell me goodbye. You say you might send a letter.   Well, honey,

F#                        Bm                   A                      G          F#
                                                                         p.m.|---|  |----|
|-------------------------|--------------------|----------------------|------------------|
|-------------------------|--------------------|----------------------|------------------|
|-------------------------|--------------------|----------------------|------------------|
|-------------------------|--------------------|----------------------|------------------|
|-------------1-----------|-2------5---2-------|------------4---------|-----------4--0-0-|
|--2----------------------|--------------------|-5--------------------|-3-----0-0-2------|
 don't telephone 'cause I won't be alone. I need someone to make feel better.
[ Tab from: http://www.guitartabs.cc/tabs/f/foreigner/blue_morning_blue_day_tab.html ]
Second Chorus:
Guitar 1
Bm              G7              F#sus4     F#7             Bm
       p.m.|---|       p.m.|---|                               ~~~~~~  
|-2------------|-3-------------|-2----------2-------|------------------|
|-3------------|-3-------------|-2----------2-------|------------------|
|-4------------|-4-------------|-4----------3-------|------------------|
|-4------------|-3-------------|-2----------2-------|------------------|
|-2------------|-5-------------|-4----------4-------|---------2-------0|
|-----------2-2|-3----------0-0|-2----------2-------|--5^1/4-----------|
Blue morning,   blue day.       Won't you see things   my    way.
                               
Bm              G7              F#sus4     F#7             Bm
       p.m.|---|       p.m.|---|                               ~~~~~~  
|-2------------|-3-------------|-2----------2-------|-------------------|
|-3------------|-3-------------|-2----------2-------|-------------------|
|-4------------|-4-------------|-4----------3-------|-------------------|
|-4------------|-3-------------|-2----------2-------|-------------------|
|-2------------|-5-------------|-4----------4-------|---------2---------|
|-----------2-2|-3----------0-0|-2----------2-------|--5^1/4----------0-|
Blue morning.   Can't you see,  what your love has    done to me. 

Guitar Solo:

Guitar 2
F#m                  F#/A                F#m/C#              D7 
|--------------------|-------------------|---------9/14---------|------14----------17-|
|-9^1/2 9^1/2-7------|-9^1/2^(9)-7-------|-------10------14-15--|------------15-------|
|--------------------|-------------7-----|-----11---------------|---------------------|
|--------------------|-------------------|--/11-----------------|---------------------|
|--------------------|-------------------|----------------------|---------------------|
|--------------------|-------------------|----------------------|---------------------|

F#m                               F#/A
|-4h5p4-2-----4h5p4-2----4h5p4-2-|-10h12p10--------10h12p10---------------------|------14---16^1/2--14-----|---16--17\\-|
|--------2-5---------2-5---------|---------12-10-----------12-10----13p12p10----|----14----------------17^1|-----------|
|--------------------------------|--------------11--------------11-----------11-|-/14----------------------|-----------|
|--------------------------------|----------------------------------------------|--------------------------|-----------|
|--------------------------------|----------------------------------------------|--------------------------|-----------|
|--------------------------------|----------------------------------------------|--------------------------|-----------|

As Guitar 2 is playing above, Guitar 1 plays
F#m             F#/A          F#m/C#      D7
|---------------|-------------|---------------|---------------|
|---------------|-------------|---------------|---------------|
|---------------|-------------|---------------|---------------|
|---------------|-------------|---------------|--4---------7--|
|---------------|-------------|-4-3-4---3-4-5-|--------5------|
|-2-1-2---1-2-4-|-5-4-5---4-5-|---------------|---------------|

F#m             F#/A          F#m/C#      D7         p.m.|----|
|---------------|-------------|---------------|---------------|
|---------------|-------------|---------------|---------------|
|---------------|-------------|---------------|---------------|
|---------------|-------------|---------------|---------------|
|---------------|-------------|-4-3-4---3-4-5-|---------------|
|-2-1-2---1-2-4-|-5-4-5---4-5-|---------------|-----------0-0-|

Third Chorus:
Guitar 1
Bm              G7              F#sus4     F#7             Bm
       p.m.|---|       p.m.|---|                               ~~~~~~  
|-2------------|-3-------------|-2----------2-------|------------------|
|-3------------|-3-------------|-2----------2-------|------------------|
|-4------------|-4-------------|-4----------3-------|------------------|
|-4------------|-3-------------|-2----------2-------|------------------|
|-2------------|-5-------------|-4----------4-------|---------2-------0|
|-----------2-2|-3----------0-0|-2----------2-------|--5^1/4-----------|
Blue morning,   blue day.       Won't you see things   my    way.
                               
Bm              G7              F#sus4     F#7             Bm
       p.m.|---|       p.m.|---|                               ~~~~~~  
|-2------------|-3-------------|-2----------2-------|-------------------|
|-3------------|-3-------------|-2----------2-------|-------------------|
|-4------------|-4-------------|-4----------3-------|-------------------|
|-4------------|-3-------------|-2----------2-------|-------------------|
|-2------------|-5-------------|-4----------4-------|---------2--------0|
|-----------2-2|-3----------0-0|-2----------2-------|--5^1/4------------|
Blue morning.   Can't you see,  what your love has    done to me. 

Guitar 1 (play three times)            then play:
Bm              G7                      Bm                G7
       p.m.|---|       p.m.|---|        
|-2------------|-3-------------|        |-2-2-2-2-2-2-2-2-|-3-3-3-3-3-3-3-3-|
|-3------------|-3-------------|        |-3-3-3-3-3-3-3-3-|-3-3-3-3-3-3-3-3-|
|-4------------|-4-------------|        |-4-4-4-4-4-4-4-4-|-4-4-4-4-4-4-4-4-|
|-4------------|-3-------------|        |-4-4-4-4-4-4-4-4-|-3-3-3-3-3-3-3-3-|
|-2------------|-5-------------|        |-2-2-2-2-2-2-2-2-|-5-5-5-5-5-5-5-5-|
|-----------2-2|-3-------------|        |-----------------|-3-3-3-3-3-3-3-3-|

Guitar 2 Plays this while Guitar 1 plays the riff above:
Bm       G7             Bm     G7             Bm     G7             Bm    G7    
|--------|--------------|------|-------------17|-14\\-|--------------|-----|-----|
|--------|-12-----------|------|----12----15---|-----|-12-----------|-----|-----|
|--------|----12--10-11-|------|--12-----------|-----|----12--10-11-|-----|-10--|
|--------|--------------|------|---------------|-----|--------------|-----|-----|
|--------|--------------|------|---------------|-----|--------------|-----|-----|
|--------|--------------|------|---------------|-----|--------------|-----|-----|


Guitar 1                                   
Bm                    B/D                 Bm/F#             G7     
|--------------------|-------------------|--------------------|-----------|
|--------------------|-------------------|--------------------|-----------|
|--------------------|-------------------|--------------------|-----------|
|--------------------|-------------------|--------------------|-----------|
|--------------------|-------------------|-9-8-9-------8-9-10-|---8--7----|
|-7-6-7--------6-7-9-|-10-9-10------9-10-|--------------------|--------10-|

Guitar 2     
|--------------------|-------------------|--------------------|-----------|
|--------------------|-------------------|--------------------|---------15|
|--------------------|-------------------|--------------------|-/16-------|
|--------------------|-------------------|-16-15-16---15-16-17|-------17--|
|-14-13-14---13-14-16|-17-16-17----16-17-|--------------------|-----------|
|--------------------|-------------------|--------------------|-----------|

Guitar 1                                   
Bm                    B/D                 Bm/F#             G7                             Bm
|--------------------|-------------------|--------------------|-----------|----------------|----------|
|--------------------|-------------------|--------------------|-----------|----------------|----------|
|--------------------|-------------------|--------------------|-----------|----------------|----------|
|--------------------|-------------------|--------------------|-----------|----------------|----------|
|--------------------|-------------------|-9-8-9-------8-9-10-|-----------|----------------|----------|
|-7-6-7--------6-7-9-|-10-9-10------9-10-|--------------------|-----------|----------------|-7\\-------|

Guitar 2     
|--------------------|-------------------|--------------------|-----------|------15----17--|-19\\------|
|--------------------|-------------------|--------------------|---------15|--18------------|----------|
|--------------------|-------------------|--------------------|-/16-------|----------------|----------|
|--------------------|-------------------|-16-15-16---15-16-17|-------17--|----------------|----------|
|-14-13-14---13-14-16|-17-16-17----16-17-|--------------------|-----------|----------------|----------|
|--------------------|-------------------|--------------------|-----------|----------------|----------|


Guitar Tab Key
/= slide up
\\= slide down
~~ = tremelo
h = hammer on
p = pull off
X = left handed mute
p.m. = palm mute
^ = bend (varying steps)
^...^() = bend and release

Notes: The first part of verse one does not have a guitar part, but you can play in just the same. It really doesn't make a difference. If you have any questions on timing or the overall direction of the song, consult the actual song. The guitar is easy to identify and understand when you listen to the track. 

If there are any comments, contact me at ksquan@hotmail.com

This text is copyrighted

If you want to use it, go ahead. But please don't cut parts or modify this page and take credit for it. This did take a good chunk of time to do, and it hurts when people lie. However, I will never know if you do infringe on my copyright. But I put trust in people, SO DON'T LIE OR THE WRATH OF GOD SHALL COME UPON YOU!!!! 

								Eagles88

Comments