Foreign Exchange - I Hate This Stupid Bike Chords & Tabs

 

I Hate This Stupid Bike Chords & Tabs

Foreign Exchange Chords & Tabs

Version: 1 Type: Tab 0 ratings
1 star 2 stars 3 stars 4 stars 5 stars
comments

I Hate This Stupid Bike Tab

This is a song featured on In Honor: A Compilation to Beat Cancer where the proceeds are 
to the Sean McGrath Fund.
Sean McGrath died of Cancer in June, 2004.
This was the last song he was ever featured in before passing away.


Intro
(Acoustic/Distorted Electric)
E-------------------------------|
B-------------------------------|
G----7--------------------------|
D----7----7----4----2-----------|
A----5----7----2----2-----------|
E---------5----2----0-----------|

Verse

E-------------------------------|
B-------------------------------|
G----7~----7--------------------|
D----7~----7----7----4----2-----|
A----5~----5----7----2----2-----|
E---------------5----2----0-----|

Breakdown
[ Tab from: http://www.guitartabs.cc/tabs/f/foreign_exchange/i_hate_this_stupid_bike_tab.html ]
Guitar 1 (PM)
E--------------------------------|
B--------------------------------|
G---7----------------------------|
D---7----------------------------|
A---5----------------------------|
E--------------------------------|

Guitar 2

E--------------------------------|
B--------------------------------|
G---7----9---11---12-------------|
D---x----x----x----x-------------|
A---5----7----9---10-------------|
E--------------------------------|

Outro

Guitar 1
E---------------------------------|
B---------------------------------|
G---7-----------------------------|
D---7----4---2--------------------|
A---5----4---2--------------------|
E--------2---0--------------------|

Guitar 2
E--------------------------------|
B--------------------------------|
G---7----9---11---12-------------|
D---x----x----x----x-------------|
A---5----7----9---10-------------|
E--------------------------------|
Comments