Fordham Julia - Porcelain Chords & Tabs

 

Porcelain Chords & Tabs

Fordham Julia Chords & Tabs

Version: 1 Type: Tab 0 ratings
1 star 2 stars 3 stars 4 stars 5 stars
comments

Porcelain Tab

From: Jeffrey.Traver@verizon.net
Date: Fri, 25 Apr 2003

drop the low e to a d. (To play with Julia, put the capo on 2)

A tender jazz love song. Julia has a 4 octave range. You've got to 
hear Julia sing. I basically finger pick thumb, index, middle, ring, 
to fill in the pace and tones.
If you like picking out some lead stuff (the instrumental section is rich
for harmonizing).

Transcribed by: Jeffrey Traver
Artist: Julia Fordham
Song:   Porcelain
Album:  Porcelain
Virgin Records ISBN: 0 7777 86147 2 2
www.juliafordham.com



Intro: -----
E---10-8-7--------------------------------5-3-2-----------------------------
B----------10-8-7--------------------------------5-3-5----------------------
G-----------------9-7-5-7-5-4-5-4-2-4-2----------------5-7-4-5-4-2-4-2------
D---------------------------------------------------------------------------
A---------------------------------------------------------------------------
D-0-------------------------------------0-----------------------------------
[ Tab from: http://www.guitartabs.cc/tabs/f/fordham_julia/porcelain_tab.html ]
Verse: -----
E-------------------------------------------------------3------------------
B-----3-------1--3------------1--------------1----------3---------1--------
G----0--------2--0------------2-------------0-----------0---------2--------
D---0---------2--0------------2------------2----4-------2---------2--------
A--2---------0---2-----------0------------0-----------------------0--------
D--------------------------------------------------------------------------

Chorus: -----
E----------------3--------3----------------------------2-3-2-3-2-----------
B------------0---3--------1-------3-------3-------3-------------3---1------
G----------------0--------0-------0-------4-------4--------------4--2------
D--------0-2-----2--------0-------0-------4-------5-----------------2------
A--0-2-3--------------------------2-------2-------5----------------0-------
D-----------------------------------------------------------------------0--

Instrumental: -----
E---2-3-2-0---------------------2-3-2-0------------------------------------
B---3----------1------1---------3----------1-------------------------------
G---2---------0-------2---------2---------0--------------------------------
D-0----------2--------2-------0----------2---------------------------------
A-----------3----3-2-0--0-2-3-----------3----3-2-0-------------------------
D--------------------------------------------------0-----------------------


Fine: -----
E-------2---------------------------------------------------------
B------3----------------------------------------------------------
G-----0-----------------------------------------------------------
D----0------------------------------------------------------------
A---2-------------------------------------------------------------
D-----------------------------------------------------------------

The layout is:
Intro
Verse 1
Chorus
Verse 2
Chorus
Instrumental
Intro
Verse 3
Chorus
Intro
Fine
Comments