For Amusement Only - Believe Chords & Tabs

 

Believe Chords & Tabs

For Amusement Only Chords & Tabs

Version: 1 Type: Tab 0 ratings
1 star 2 stars 3 stars 4 stars 5 stars
comments

Believe Tab

Bransden69@hotmail.com
 
 + - mute
 x - scratch
   
   |--------------------|
   |--------------------|
   |-77xx---------------|
   |-77xx77xx55xx5577x--|
   |-55xx77xx55xx5577x--|(x2)
   |-----55xx33xx3355x--|
[ Tab from: http://www.guitartabs.cc/tabs/f/for_amusement_only/believe_tab.html ]
   |-----------------|
   |-----------------|
   |-77--------------|
   |-77-77-55---57---|
   |-55-77-55---57---|(x2)
   |----55-33---35---|
     
                              
   |--------------------|      |------------------------|
   |--------------------|      |------------------------|
   |-77xx---------------|      |-77xx-------------------|
   |-77xx77xx55xx5577x--|      |-77xx77xx55~--555555555-|
   |-55xx77xx55xx5577x--|(x2)  |-55xx77xx55~--555555555-|
   |-----55xx33xx3355x--|      |-----55xx33~--333333333-|
                                              +++++
  (chorus)
   |-------------------------|
   |-------------------------|
   |-7-----------------------|
   |-7(x8)-7-----9-----5-----|
   |-5-----7(x8)-9(x8)-5(x8)-|
   |-------5-----7-----3-----|

   |----------------------------------------------------------------|
   |----10--8--7--------7--7--8--7--------10--8--7--------8--7------|
   |-7------------9--9--------------7--7------------9--9--------9-7-|
   |----------------------------------------------------------------|
   |----------------------------------------------------------------|
   |----------------------------------------------------------------|
Comments