For Amusement Only - 22 Chords & Tabs

 

22 Chords & Tabs

For Amusement Only Chords & Tabs

Version: 1 Type: Bass Tab 0 ratings
1 star 2 stars 3 stars 4 stars 5 stars
comments

22 Bass Tab

-------------------------------------------------------------------------------
			     22 - FAO
-------------------------------------------------------------------------------

Tabbed By : Roxy
e-mail: emiliooo_tbrt@hotmail.com

feel free to correct me on this if im wrong

G|---------------------------------------------------------------------------|
D|---------------------------------------------------------------------------|
A|-2-2-------------2-2-------------------------------------------------------|
E|-----2-2-0-0-2-2-----2-2-0-0-2-2-------------------------------------------|
[ Tab from: http://www.guitartabs.cc/tabs/f/for_amusement_only/22_btab.html ]
G|---------------------------------------------------------------------------|
D|---------------------------------------------------------------------------|
A|-2-1-----------------------------------------------------------------------|
E|-----4-2-------------------------------------------------------------------|

G|---------------------------------------------------------------------------|
D|---------------------------------------------------------------------------|
A|-2-2-2-2-1-1-1-1-----------------------------------------------------------|
E|-----------------4-4-4-4-2-2-2-2-0-0-0-0-0-0-0-0-2-2-2-2-2-2-2-2-----------|x2

G|---------------------------------------------------------------------------|
D|---------------------------------------------------------------------------|
A|---------------------------------2-2-2-2-2-2-2-2---------------------------|
E|-4-4-4-4-4-4-4-4-0-0-0-0-0-0-0-0-----------------2-2-2-2-2-2-2-2-----------|x2

thats the whole song all you basically have to do is repeat it.
Comments