Foot Flag Thunder - Umbrella Chords & Tabs

 

Umbrella Chords & Tabs

Foot Flag Thunder Chords & Tabs

Version: 1 Type: Tab 0 ratings
1 star 2 stars 3 stars 4 stars 5 stars
comments

Umbrella Tab

This is a really awsome song by the late Foot Flag thunder, a short-lived
underground band..

bass intro(pattern 1)

G---------------5----------------
D-7-7-7-7-7-7-7---5-5-5-5-5-5-5-5
A--------------------------------
E--------------------------------

do that while the guitar plays this...
(pattern 1)
e------------------------
b------------------------
g------------------------
d------------------------
a---------5~---------3~-1
e-3h5-5-------1h3-3------

then the bass keeps doing that, but faster and the guitar does this:
(pattern 1b)
e----------------------------------------------
b----------------------------------------------
g--------------------5555----------------------
d-77-5-777-5-777-5-7-----77-5-777-5-75-3333-333
a----------------------------------------------
e----------------------------------------------
[ Tab from: http://www.guitartabs.cc/tabs/f/foot_flag_thunder/umbrella_tab.html ]
then the bass does (pattern 2)
G------------------------------------------------------------------------------
D------------------------------------------------------------------------------
A------------------------------------------------------------------------------
E2-2-22-22-55-7-777--2-22-222-3-33-333--2-2-22-22-55-7-777--2-2-22-22-3-3-1-111

Guitar does(pattern 2)

e--------------------------------------------------------------------------------
b--------------------------------------------------------------------------------
g--------------------------------------------------------------------------------
d-4-4-44-44-77-9-999-xxx-4-4-44-44-5-5-5555--4-4-44-44-77-9-999---4-44-44-55-33-2
a-2-2-22-22-55-7-777-xxx-2-2-22-22-3-3-3333--2-2-22-22-55-7-777---2-22-22-33-11-2
e-2-2-22-22-55-7-777-xxx-2-2-22-22-3-3-3333--2-2-22-22-55-7-777---2-22-22-33-11-0

then the guitar holds the last E chord while the bass returns to pattern one.
then the guitar starts into pattern one, then pattern 1b. then
the bass keeps going at pattern one really fast while the guitar does 
the solo.

solo
e---------------------------
b---------------------------
g---------------------------   and thats it! im positive this song is correct,
d---------------------------   because i wrote it and was foot flag thunder's guitarist
a-\14~--15h17-17p15-15~--12-
e---------------------------
Comments