Foo Fighters - X Static Chords & Tabs

 

X Static Chords & Tabs

Foo Fighters Chords & Tabs

Version: 3 Type: Tab 0 ratings
1 star 2 stars 3 stars 4 stars 5 stars
comments

X Static Tab

   
Foo Fighters - X-Static
Gtr.1 capoII

Tune down  step: All Gtrs. 

1st = Eb 4th = Db 
2nd = Bb 5th = Ab 
3rd = Gb 6th = Eb 


Intro - Moderately 90bpm
eb||------------------------------||
Bb||-------------3-3-3-3-3-3-3-3--||
Gb||-------------2-2-2-2-2-2-2-2--|| (x8)
Db||----/-(full)-0-0-0-0-0-0-0-0--||
Ab||--3/--------------------------||
Eb||------------------------------||


Chorus
eb|-----------------|-----------------|-----------------|
Bb|-3-3-3-3-3-3-3-3-|-3-3-3-3-3-3-3-3-|-3-3-3-3-3-3-3-3-|
Gb|-2-2-2-2-2-2-2-2-|-2-2-2-2-1-1-1-1-|-0-0-0-0-0-0-0-0-|
Db|-0-0-0-0-0-0-0-0-|-0-0-0-0-0-0-0-0-|-0-0-0-0-0-0-0-0-|
Ab|-----------------|-----------------|-----------------|
Eb|-----------------|-----------------|-----------------|

eb|-(3)--------------------|---------------------|
Bb|-(0)--------------------|---------------------|
Gb|-(0)--------------------|---------------------|
Db|------------------------|---------------------|
Ab|------------3/5---5/7---|-(7)-------7/9-------|
Eb|------------------------|-----------------10\-|






_______________________
Foo Fighters - X-Static
(Normal Tuning)

[ Tab from: http://www.guitartabs.cc/tabs/f/foo_fighters/x_static_tab_ver_3.html ]
Intro
(Gtr. 1)
e||---------------------||
B||---------------------||
G||------9-9-9-9-9-9-9--||
D||------9-9-9-9-9-9-9--||
A||--^6--7-7-7-7-7-7-7--||
E||---------------------||

(Gtr. 2)
e||------------------------------------------------------------------------|
B||------------------------------------------------------------------------|
G||------------------------------------4-4-4-4-4-4-4---------------4-------|
D||--2-2-2-2-2-2-2-2-2-2-2-2-2-2-----2-0-0-0-0-0-0-0---------------x-------|
A||--2-2-2-2-2-2-1-0-0-0-0-0-0-0-0-2-2-x-x-x-x-x-x-x-4-4-4-4-4-4-3-2-2-2-2-|
E||------------------------------------3-3-3-3-3-3-4-5-5-5-5-5-5-4-3-3-3-3-|

e|--------------------------------------------||
B|--------------------------------------------||
G|-4-4-4-------3-3-3-3-3-4-4-4-4-4-4-4-4-4-4--||
D|-x-x-x-------x-x-x-x-x-2-2-2-2-2-2-2-2-2-2--||
A|-2-2-2-5-1-1-1-1-1-1-1-2-2-2-2-2-2-2-2-2-2--||
E|-3-3-3-4-2-2-2-2-2-2-3-4-4-4-4-4-4-4-4-4-4--||


Chorus
e||--------------------------------------------------------------------------||
B||--------------------------------------------------------------------------||
G||----------1---1-----------1-------------------------2--2--2--------2------||
D||------2-----------2---2-------------2-2-2-2-2-2-----2--2--2-----2------2--||
A||--4---------------2----------1------1-1-1-1-1-1--5--------5--4---------3--||
E||---------------------------------2--2-2-2-2-2-2---------------------------||
Comments