Foo Fighters - Wind Up Chords & Tabs

 

Wind Up Chords & Tabs

Foo Fighters Chords & Tabs

Version: 1 Type: Bass Tab 0 ratings
1 star 2 stars 3 stars 4 stars 5 stars
comments

Wind Up Bass Tab

Tablatura de NICO M. (nicokbbl@hotmail.com)

Artista: Foo Fighters
Cancion: Wind Up
Album: The Colour And The Shape (1997) 


Intro
1|----------------------------------------------------------|
2|--------------------------0--------------------------0----|
3|-------------------------------------------------------0--|
4|--7-7-7-5-6-7-5-6-7-6-5------7-7-7-5-6-7-5-6-7-6-5--------|


Coro
1|---------------------------------------------------------------|
2|---------------------------------------------------------------|
3|----------------------------------5-5-5-5-5-5-7-7-7-7-7-7-6-5--|
4|--7-7-7-7-7-7-7-7-5-5-5-5-5-5-5-5------------------------------|


[ Tab from: http://www.guitartabs.cc/tabs/f/foo_fighters/wind_up_btab.html ]
1|---------------------------------------------------------------|
2|---------------------------------------------------------------|
3|--2-2-2-2-4-4-4-4-6-6-6-6-9--1-1-1-1---1-----------------------|
4|-------------------------------------4-------------------------|



1|---------------------------------------------------------------|
2|---------------------------------------------------------------|
3|-7--5--7--6--2-----4--2--1--7--5--7--6--2-----4--6--7----------|
4|----------------4--------------------------4-------------------|



1|---------------------------------------------------------------|
2|---------------------------------------------------------------|
3|--7-7-7-7-7-7-7-7-7-7------------------------------------------|
4|---------------------------------------------------------------|




1|---------------------------------------------------------------|
2|---------------------------------------------------------------|
3|--0---------------0--------------------------------------------|
4|----2-0-1-2-2-2-----2-0-1-2-2----------------------------------|
Comments