Foo Fighters - What If I Do Chords & Tabs

 

What If I Do Chords & Tabs

Foo Fighters Chords & Tabs

Version: 3 Type: Tab 0 ratings
1 star 2 stars 3 stars 4 stars 5 stars
comments

What If I Do Tab

Foo Fighters - What If I Do?

Artist: Foo Fighters
Album: In Your Honor
Genre: Rock

Tuning: eBGDAE

Intro/Verse
   Gtr. 1
e||----------------------------------------------------3-----3-------3---3-3--||
B||----------------------------------------------------1-----1-------1---1-1--||
G||----2-----4-----0-----2-----4-----2-----0----0------0-----0-----0-0---0-0--||
D||---------------------------------------------0h2----2-----2-----2----------||
A||-3-----3-----3-----3-----3-----3-----3-----3----(3)-3-----3---3-3----------||
E||---------------------------------------------------------------------------||

   Gtr. 2
e||------------------------------------------------||
B||------------------------------------------------||
G||-----10-----12-----14-----16---/12-12-12--10-9--||
D||-/10----/10----/14----/14-----------------------||
A||------------------------------------------------||
E||------------------------------------------------||

[ Tab from: http://www.guitartabs.cc/tabs/f/foo_fighters/what_if_i_do_tab_ver_3.html ]
Chorus
e||--6-5-4-3--||
B||--6-5-4-1--||
G||--7-5-5-0--||
D||--8-7-6-2--||
A||--8-7-6-3--||
E||--6-5-4----||


Solo
e||------------------------------------------------------||
B||------------------------------------------8--10-10-8~-||
G||--17-17b19r17-16-17-14-16-14-12-9h10-9-7-9-9-9--9--9~-||
D||------------------------------------------------------||
A||------------------------------------------------------||
E||------------------------------------------------------||

e||-----------------------------------------------------------||
B||------------------------------------------8--10-10-8--8-8--||
G||--17-17b19r17-16-17-14-16-14-12-9h10-9-7-9-9-9--9--9-10-9--||
D||-----------------------------------------------------------||
A||-----------------------------------------------------------||
E||-----------------------------------------------------------||


Outro
e||--3-3-1--||
B||--1-3-1--||
G||--0-4-2--||
D||--2-5-3--||
A||--3-5-3--||
E||----3-1--||
Comments