Foo Fighters - What If I Do Chords & Tabs

 

What If I Do Chords & Tabs

Foo Fighters Chords & Tabs

Version: 1 Type: Tab 0 ratings
1 star 2 stars 3 stars 4 stars 5 stars
comments

What If I Do Tab

   
Title: What If I Do?
Artist: Foo Fighters
Album: In Your Honor

Tabbed by: alexb (dirmass [ at ] gmail [ dot ] com)

Tuning: ?Standard? (E A D G B E)




Intro and main riff:
Guitar 1 Acoustic:
                                    G variations - Follow the song for the exact chord strumming pattern
E|---------------------------------333------------||
B|---------------------------------333------------||
G|------2--4--0--2--5--2--0-----0--000------------||
D|-----------(5)---------(5)-0h2---200------------||
A|---3-------------------------------3------------||
E|------------------------------------------------||

Guitar 2 Clean Electric:
Intro:
E|------------3-----5-----7-----------------------||
B|------5--------------------8--6-5---------------||
G|---4/5---4/5---4/5---4/5---9--7-5---------------||
D|------------------------------------------------||
A|------------------------------------------------||
E|------------------------------------------------||

Chorus:

use the following chords:
[ Tab from: http://www.guitartabs.cc/tabs/f/foo_fighters/what_if_i_do_tab.html ]
     A#  Am  G#	 C
E|---6---0---4---0---||
B|---6---1---4---1---||
G|---7---2---5---0---||
D|---8---2---6---2---||
A|---8---0---6---3---||
E|---6-------4-------||

	  A#
What if I do love....
	  
           Am
What if I don't?...

	      G#
I'd have to loose...

	 C
Just to find you...


Solo:
Guitar 2:

E|------------------------------------------------||
B|------------------------------------------------||
G|--17--17b19r17--16--17--14--16p14--12--14-------||
D|------------------------------------------------||
A|------------------------------------------------||
E|------------------------------------------------||

E|------------------------------------------------||
B|-----------------8--10--10--8--6-5--------------||
G|--9--10p9--7--9-------------9--7-5--------------||
D|------------------------------------------------||
A|------------------------------------------------||
E|------------------------------------------------||

Not sure about the tuning, think it's tuned 1/2 a step down and the tab is not 100% correct :).
If find any improvemnts or figure out the bridge, email me :).
Comments