Foo Fighters - Wattershed Chords & Tabs

 

Wattershed Chords & Tabs

Foo Fighters Chords & Tabs

Version: 1 Type: Tab 0 ratings
1 star 2 stars 3 stars 4 stars 5 stars
comments

Wattershed Tab

Artist: Foo Fighters
Song: Wattershed
Album: Foo Fighters

This song is titled "Wattershed". Not "Watershed". The extra T is for a some guy
with the last name of Watt that toured around with them, but that isnt
important.  This is a fast crazy song that keeps you constantly moving. The
lyrics are kinda abstract too... but it sounds pretty cool. And in the very
beginning there is some weird effect on the guitar, but you dont really have to
worry about it that much.

Intro/Verse
e||---------------------------------------------------||
B||---------------------------------------------------||
G||---------------------------------------------------||
D||--6/8---8---8---8---8---6/8---8---8---8-----9\8--8-||
A||--6/8---8---8---8---8---6/8---8---8---8-----9\8--8-||
E||--4/6---6---6---6---6---4/6---6---6---6-----7\6--6-||
     Stick  it  to  the  mail - man...
[ Tab from: http://www.guitartabs.cc/tabs/f/foo_fighters/wattershed_tab.html ]
This part is used like in mid-verse                                 
e|-------------------------------------------------------||
B|-------------------------------------------------------||
G|-------8--8--------------------------------------------||
D|-6--6--8--8--8-8-8-8-8-8--3----6--6--6--6--6--6--------||
A|-6--6--6--6--8-8-8-8-8-8--3----6--6--6--6--6--6--------||
E|-4--4--------6-6-6-6-6-6--1----4--4--4--4--4--4--------||
                                 (add some upstrokes here)
  

Chorus
e||--------------------------------------|------------------------------------|
B||--------------------------------------|------------------------------------|
G||------------10----10------------------|-7------7--10----10-----------------|
D||--7------7--10----10--9----------9--9-|-7------7--10----10--7---------7--7-|
A||--7------7---8-----8--9----------9--9-|-5------5---8-----8--7---------7--7-|
E||--5------5------------7----------7--7-|---------------------5---------5--5-|
                        Hey there boy you been catchin' the black widow.

e|---------------------------------------|---------||
B|---------------------------------------|---------||
G|-----------1------1--------------------|---------||
D|-7------7--1------1--9------------9--9-|-9-------||
A|-7------7--3------3--9------------9--9-|-7----9--||
E|-5------5------------7------------7--7-|------7--||
         That's what we want you to know.



If you got questions, email me at "incubusdude17@hotmail.com"
Comments