Foo Fighters - Up In Arms Chords & Tabs

 

Up In Arms Chords & Tabs

Foo Fighters Chords & Tabs

Version: 1 Type: Bass Tab 0 ratings
1 star 2 stars 3 stars 4 stars 5 stars
comments

Up In Arms Bass Tab

Song: Up in arms
Artist: Foo Fighters
Album: The colour and the shape

Tabbed by Serena Di Iulio  ICQ: 38559568
Member of the Bass Tab Archive Tabbing Army ~
http://www.basstabarchive.com


Slow part:

G||--------------------------|--------------------------|
D||--------------------------|--------------------------|
A||--3--3--3-----2--2--2-----|--------------------------|
E||-----------3-----------3--|--5--5--5--3--3--3--3--0--|


                                                      
--------------------------|--------------------------|
--------------------------|--------------------------|
--------------------------|--3--3--3--3----3--3--3---|
--1--1--1--1/-4--4--4--4/-|------------------------3-|


                                                       
-----------------------2-2-|--2--0--------------------|
-----------------2--5------|--------2-----------------|
--3--3--3--2--3------------|-----------3--------------|
---------------------------|--------------3--3--3--0--|


                                                       
--------------------------|---------------------------|
--------------------------|---------------------------|
--------------------------|--3----3---3-3--3--3-0-----|
--1--1--1--1/-4--4--4--4/-|-----------------------3-0-|


                                                      
--------------------------|--------------------------|
--------------------------|--------------------------|
--------------------------|--------------------------|
--1--1--1--1--1--1--1--1/-|--4--4--4--4--4--4--4--4--|


                                               
----------------------|-----------------------|
----------------------|-----------------------|
--3-------3-----------|-------3---------------|
-------3-----------3--|--5-------5----3----0--|


                                                      
--------------------------|--------------------------|
--------------------------|--------------------------|
--------------------------|--------------------------|
--1--1--1--1--1--1--1--1/-|--4--4--4--4--4--4--4--4--|


-------|
-------|
--3----|
-------|




Verse:
[ Tab from: http://www.guitartabs.cc/tabs/f/foo_fighters/up_in_arms_btab.html ]
G||--------------------------|--------------------------|
D||--------------------------|--------------------------|
A||--3--3--3--3--2--2--2--2--|--------------------------|
E||--------------------------|--5--5--5--5--3--3--3--0--|


                                                      
--------------------------|--------------------------|
--------------------------|--------------------------|
--------------------------|--3--3--3--3--3--3--3-----|
--1--1--1--1--4--4--4--4--|-----------------------3--|


                                                      
--------------------0--2--|--2--0--------------------|
-----------------2--------|--------2-----------------|
--3--3--3--2--3-----------|-----------3--------------|
--------------------------|--------------3--3--3--0--|


                                                      
--------------------------|--------------------------|
--------------------------|--------------------------|
--------------------------|--3--3--3--3--3-----------|
--1--1--1--1--4--4--4--4--|-----------------5--3--0--|



Chorus:


G||--------------------------|--------------------------|
D||--------------------------|--------------------------|
A||--------------------------|--------------------------|
E||--1--1--1--1--1--1--1--1--|--4--4--4--4--4--4--4--4--|


                                                      
--------------------------|--------------------------|
--------------------------|--------------------------|
--3--3--3--3--3--3--3--3--|--------------------------|
--------------------------|--5--5--5--5--5--5--5--5--|


                                                      
--------------------------|--------------------------|
--------------------------|--------------------------|
--------------------------|--------------------------|
--1--1--1--1--1--1--1--1--|--4--4--4--4--4--4--4--4--|


                                                       
--------------------------|--------------------------||
--------------------------|--------------------------||
--3--3--3--3--3--3--3--3--|--3--3--3--3--3--3--3-----||
--------------------------|-----------------------3--||

Comments