Foo Fighters - Tired Of You Chords & Tabs

 

Tired Of You Chords & Tabs

Foo Fighters Chords & Tabs

Version: 6 Type: Tab 0 ratings
1 star 2 stars 3 stars 4 stars 5 stars
comments

Tired Of You Tab

   
This is one of my favorite songs by the Foo Fighters, the an exremely great band, Dave
Groll rules; he can play anything. Anyway this song took me forever to tab, because I
was being very specific with everything. So everyone can enjoy it correctly.

Tuning: Drop D
e,B,G,D,A,D

Verse 1
Guitar 1 (plays alone)
All Palm muted
    0:00
e-|-------------------------------------------------------------------------------------------------|
B-|-------------------------------------------------------------------------------------------------|
G-|-------------------------------------------------------------------------------------------------|
D-|-----5---------5---------5---------5---------5---------5---------5---------5---------------------|
A-|-5-5-5-5-5-5-5-5-5-5-5-5-5-5-5-5-5-5-5-5-5-5-5-5-5-5-5-5-5-5-5-5-5-5-5-5-5-5-5-5-----------------|
D-|-5-5-5-5-5-5-5-5-5-5-5-5-5-5-5-5-5-5-5-5-5-5-5-5-5-5-5-5-5-5-5-5-5-5-5-5-5-5-5-5-----------------|

    0:09
e-|-------------------------------------------------------------------------------------------------|
B-|-------------------------------------------------------------------------------------------------|
G-|-------------------------------------------------------------------------------------------------|
D-|-----5---------5---------5---------5---------5---------5---------5---------5---------------------|
A-|-5-5-5-5-5-5-5-5-5-5-5-5-5-5-5-5-5-5-5-5-5-5-5-5-5-5-5-5-5-5-5-5-5-5-5-5-5-5-5-5-----------------|
D-|-5-5-5-5-5-5-5-5-5-5-5-5-5-5-5-5-5-5-5-5-5-5-5-5-5-5-5-5-5-5-5-5-5-5-5-5-5-5-5-5-----------------|
    I can be your liar                     I  can  be  your  bearer  of  bad  news.
    0:18
e-|-------------------------------------------------------------------------------------------------|
B-|-------------------------------------------------------------------------------------------------|
G-|-------------------------------------------------------------------------------------------------|
D-|-----3---------3---------3---------3---------1---------1---------0---------0---------------------|
A-|-3-3-3-3-3-3-3-3-3-3-3-3-3-3-3-3-3-3-3-3-1-1-1-1-1-1-1-1-1-1-0-0-0-0-0-0-0-0-0-0-----------------|
D-|-3-3-3-3-3-3-3-3-3-3-3-3-3-3-3-3-3-3-3-3-1-1-1-1-1-1-1-1-1-1-0-0-0-0-0-0-0-0-0-0-----------------|
                                           Sick  and  uninspired  by
    0:27
e-|-------------------------------------------------------------------------------------------------|
B-|-------------------------------------------------------------------------------------------------|
G-|-------------------------------------------------------------------------------------------------|
D-|-----5---------5---------5---------5---------5---------5---------5---------5---------------------|
A-|-5-5-5-5-5-5-5-5-5-5-5-5-5-5-5-5-5-5-5-5-5-5-5-5-5-5-5-5-5-5-5-5-5-5-5-5-5-5-5-5-----------------|
D-|-5-5-5-5-5-5-5-5-5-5-5-5-5-5-5-5-5-5-5-5-5-5-5-5-5-5-5-5-5-5-5-5-5-5-5-5-5-5-5-5-----------------|
    the diamonds in your fire              burning like a flame inside   of   you.
    0:36
e-|-------------------------------------------------------------------------------------------------|
B-|-------------------------------------------------------------------------------------------------|
G-|-------------------------------------------------------------------------------------------------|
D-|-----3---------3---------3---------3---------1---------1---------0---------0---------------------|
A-|-3-3-3-3-3-3-3-3-3-3-3-3-3-3-3-3-3-3-3-3-1-1-1-1-1-1-1-1-1-1-0-0-0-0-0-0-0-0-0-0-----------------|
D-|-3-3-3-3-3-3-3-3-3-3-3-3-3-3-3-3-3-3-3-3-1-1-1-1-1-1-1-1-1-1-0-0-0-0-0-0-0-0-0-0-----------------|
                                           Is  this  just  desire  or  the  truth?

Prechorus
Guitar 1
Palm muted
    0:45
e-|-------------------------------------------------------------------------------------------------|
B-|-------------------------------------------------------------------------------------------------|
G-|-------------------------------------------------------------------------------------------------|
D-|-----5---------5---------5---------5-----------10-------------10-----------5---------5-----------|
A-|-5-5-5-5-5-5-5-5-5-5-5-5-5-5-5-5-5-5-5-5-10-10-10-10-10-10-10-10-10-10-5-5-5-5-5-5-5-5-5-5-------|
D-|-5-5-5-5-5-5-5-5-5-5-5-5-5-5-5-5-5-5-5-5-10-10-10-10-10-10-10-10-10-10-5-5-5-5-5-5-5-5-5-5-------|
                                           So   shame   on   me   for   the   ruse.
    0:54
e-|-------------------------------------------------------------------------------------------------|
B-|-------------------------------------------------------------------------------------------------|
G-|-------------------------------------------------------------------------------------------------|
D-|-------10-------------10-----------5---------5---------3---------3---------1---------1-----------|
A-|-10-10-10-10-10-10-10-10-10-10-5-5-5-5-5-5-5-5-5-5-3-3-3-3-3-3-3-3-3-3-1-1-1-1-1-1-1-1-1-1-------|
D-|-10-10-10-10-10-10-10-10-10-10-5-5-5-5-5-5-5-5-5-5-3-3-3-3-3-3-3-3-3-3-1-1-1-1-1-1-1-1-1-1-------|
    Shame   on   me   for   the   blues.             Another one returned that i'll never use.
    1:03
e-|-------------------------------------------------------------------------------------------------|
B-|-------------------------------------------------------------------------------------------------|
G-|-------------------------------------------------------------------------------------------------|
D-|-----0---------0---------0---------0-------------------------------------------------------------|
A-|-0-0-0-0-0-0-0-0-0-0-0-0-0-0-0-0-0-0-0-0---------------------------------------------------------|
D-|-0-0-0-0-0-0-0-0-0-0-0-0-0-0-0-0-0-0-0-0---------------------------------------------------------|


Chorus
Guitar 1
Palm muted
    1:08
e-|-------------------------------------------------------------------------------------------------|
B-|-------------------------------------------------------------------------------------------------|
G-|-------------------------------------------------------------------------------------------------|
D-|-----5---------5---------5---------5---------3---------3---------3---------3---------------------|
A-|-5-5-5-5-5-5-5-5-5-5-5-5-5-5-5-5-5-5-5-5-3-3-3-3-3-3-3-3-3-3-3-3-3-3-3-3-3-3-3-3-----------------|
D-|-5-5-5-5-5-5-5-5-5-5-5-5-5-5-5-5-5-5-5-5-3-3-3-3-3-3-3-3-3-3-3-3-3-3-3-3-3-3-3-3-----------------|
    I  won't  go  gettin'  tired  of  you. I  won't  go  gettin'  tired  of  you.

Guitar 2 (enters)
    1:08
e-|-------------------------------------------------------------------------------------------------|
B-|-------------------------------------------------------------------------------------------------|
G-|-------------------------------------------------------------------------------------------------|
D-|---5~~~------------------------------------3~~~--------------------------------------------------|
A-|---5~~~------------------------------------3~~~--------------------------------------------------|
D-|-5~~~------------------------------------3~~~----------------------------------------------------|

Guitar 1
Palm muted
    1:16
e-|-------------------------------------------------------------------------------------------------|
B-|-------------------------------------------------------------------------------------------------|
G-|-------------------------------------------------------------------------------------------------|
D-|-----1---------1---------0---------0-------------------------------------------------------------|
A-|-1-1-1-1-1-1-1-1-1-1-0-0-0-0-0-0-0-0-0-0---------------------------------------------------------|
D-|-1-1-1-1-1-1-1-1-1-1-0-0-0-0-0-0-0-0-0-0---------------------------------------------------------|
    I'm  not  getting  tired

Guitar 2
    1:16
e-|-------------------------------------------------------------------------------------------------|
B-|-------------------------------------------------------------------------------------------------|
G-|-------------------------------------------------------------------------------------------------|
D-|---1~~~----------------0~~~----------------------------------------------------------------------|
A-|---1~~~----------------0~~~----------------------------------------------------------------------|
D-|-1~~~----------------0~~~------------------------------------------------------------------------|

Guitar 1
Palm muted
    1:21
e-|-------------------------------------------------------------------------------------------------|
B-|-------------------------------------------------------------------------------------------------|
G-|-------------------------------------------------------------------------------------------------|
D-|-----5---------5---------5---------5---------3---------3---------3---------3---------------------|
A-|-5-5-5-5-5-5-5-5-5-5-5-5-5-5-5-5-5-5-5-5-3-3-3-3-3-3-3-3-3-3-3-3-3-3-3-3-3-3-3-3-----------------|
D-|-5-5-5-5-5-5-5-5-5-5-5-5-5-5-5-5-5-5-5-5-3-3-3-3-3-3-3-3-3-3-3-3-3-3-3-3-3-3-3-3-----------------|
    I  won't  go  gettin'  tired  of  you. I  won't  go  gettin'  tired  of  you.

Guitar 2
    1:21
e-|-------------------------------------------------------------------------------------------------|
B-|-------------------------------------------------------------------------------------------------|
G-|-------------------------------------------------------------------------------------------------|
D-|---5~~~------------------------------------3~~~--------------------------------------------------|
A-|---5~~~------------------------------------3~~~--------------------------------------------------|
D-|-5~~~------------------------------------3~~~----------------------------------------------------|

Guitar 1
Palm muted
    1:30
e-|-------------------------------------------------------------------------------------------------|
B-|-------------------------------------------------------------------------------------------------|
G-|-------------------------------------------------------------------------------------------------|
D-|-----1---------1---------0---------0-------------------------------------------------------------|
A-|-1-1-1-1-1-1-1-1-1-1-0-0-0-0-0-0-0-0-0-0---------------------------------------------------------|
D-|-1-1-1-1-1-1-1-1-1-1-0-0-0-0-0-0-0-0-0-0---------------------------------------------------------|
    I'm  not  getting  tired

Guitar 2
    1:30
e-|-------------------------------------------------------------------------------------------------|
B-|-------------------------------------------------------------------------------------------------|
G-|-------------------------------------------------------------------------------------------------|
D-|---1~~~----------------0~~~----------------------------------------------------------------------|
A-|---1~~~----------------0~~~----------------------------------------------------------------------|
D-|-1~~~----------------0~~~------------------------------------------------------------------------|

Verse 2
Guitar 1
Palm muted
    1:35
e-|-------------------------------------------------------------------------------------------------|
B-|-------------------------------------------------------------------------------------------------|
G-|-------------------------------------------------------------------------------------------------|
D-|-----5---------5---------5---------5---------5---------5---------5---------5---------------------|
A-|-5-5-5-5-5-5-5-5-5-5-5-5-5-5-5-5-5-5-5-5-5-5-5-5-5-5-5-5-5-5-5-5-5-5-5-5-5-5-5-5-----------------|
D-|-5-5-5-5-5-5-5-5-5-5-5-5-5-5-5-5-5-5-5-5-5-5-5-5-5-5-5-5-5-5-5-5-5-5-5-5-5-5-5-5-----------------|
    Hanging on this wire                   Waiting for the day I have to choose.

Guitar 3 (enters)
    1:35
e-|-------3--------5-----------------------------3--------5-----------------------------------------|
B-|----3-----3-----3--------------------------3-----3-----3-----------------------------------------|
G-|-3--------------3-----------------------3--------------3-----------------------------------------|
D-|-------------------------------------------------------------------------------------------------|
A-|-------------------------------------------------------------------------------------------------|
D-|-------------------------------------------------------------------------------------------------|

Guitar 1
Palm muted
    1:44
e-|-------------------------------------------------------------------------------------------------|
B-|-------------------------------------------------------------------------------------------------|
G-|-------------------------------------------------------------------------------------------------|
D-|-----3---------3---------3---------3---------1---------1---------0---------0---------------------|
A-|-3-3-3-3-3-3-3-3-3-3-3-3-3-3-3-3-3-3-3-3-1-1-1-1-1-1-1-1-1-1-0-0-0-0-0-0-0-0-0-0-----------------|
D-|-3-3-3-3-3-3-3-3-3-3-3-3-3-3-3-3-3-3-3-3-1-1-1-1-1-1-1-1-1-1-0-0-0-0-0-0-0-0-0-0-----------------|
                                           Cursed by love so dire

Guitar 3
    1:44
e-|-------1-------1---------------------------3--------------------2--------------------------------|
B-|----1-----1----1------------------------4-----4--------------1-----1-----------------------------|
G-|-2-------------0----2----------------------------3--------------------1--------------------------|
D-|-------------------------------------------------------------------------------------------------|
A-|-------------------------------------------------------------------------------------------------|
D-|-------------------------------------------------------------------------------------------------|

Guitar 1
Palm muted
    1:53
e-|-------------------------------------------------------------------------------------------------|
B-|-------------------------------------------------------------------------------------------------|
G-|-------------------------------------------------------------------------------------------------|
D-|-----5---------5---------5---------5---------5---------5---------5---------5---------------------|
A-|-5-5-5-5-5-5-5-5-5-5-5-5-5-5-5-5-5-5-5-5-5-5-5-5-5-5-5-5-5-5-5-5-5-5-5-5-5-5-5-5-----------------|
D-|-5-5-5-5-5-5-5-5-5-5-5-5-5-5-5-5-5-5-5-5-5-5-5-5-5-5-5-5-5-5-5-5-5-5-5-5-5-5-5-5-----------------|
    One more boy for hire.                 One  more boy to lend a  hand to you.

Guitar 3
    1:53
e-|-------3--------5-----------------------------3---------5----------------------------------------|
B-|----3-----3-----3--------------------------3-----3------3----------------------------------------|
G-|-3--------------3-----------------------3---------------3----------------------------------------|
D-|-------------------------------------------------------------------------------------------------|
A-|-------------------------------------------------------------------------------------------------|
D-|-------------------------------------------------------------------------------------------------|

Guitar 1
Palm muted
    2:02
e-|-------------------------------------------------------------------------------------------------|
B-|-------------------------------------------------------------------------------------------------|
G-|-------------------------------------------------------------------------------------------------|
D-|-----3---------3---------3---------3---------1---------1---------0---------0---------------------|
A-|-3-3-3-3-3-3-3-3-3-3-3-3-3-3-3-3-3-3-3-3-1-1-1-1-1-1-1-1-1-1-0-0-0-0-0-0-0-0-0-0-----------------|
D-|-3-3-3-3-3-3-3-3-3-3-3-3-3-3-3-3-3-3-3-3-1-1-1-1-1-1-1-1-1-1-0-0-0-0-0-0-0-0-0-0-----------------|
                                           Is  this  just  desire  or  the  truth?

Guitar 3
    2:02
e-|-------1-------1---------------------------3-------------------2---------------------------------|
B-|----1-----1----1------------------------4-----4-------------1-----1------------------------------|
G-|-2-------------0----2----------------------------3-------------------1---------------------------|
D-|-------------------------------------------------------------------------------------------------|
A-|-------------------------------------------------------------------------------------------------|
D-|-------------------------------------------------------------------------------------------------|

Prechorus
Guitar 1
Palm muted
    2:11
e-|-------------------------------------------------------------------------------------------------|
B-|-------------------------------------------------------------------------------------------------|
G-|-------------------------------------------------------------------------------------------------|
D-|-----5---------5---------5---------5-----------10-------------10-----------5---------5-----------|
A-|-5-5-5-5-5-5-5-5-5-5-5-5-5-5-5-5-5-5-5-5-10-10-10-10-10-10-10-10-10-10-5-5-5-5-5-5-5-5-5-5-------|
D-|-5-5-5-5-5-5-5-5-5-5-5-5-5-5-5-5-5-5-5-5-10-10-10-10-10-10-10-10-10-10-5-5-5-5-5-5-5-5-5-5-------|
                                           So   shame   on   me   for   the   ruse.

Guitar 3
    2:11
e-|---------3---------------------------------------------3-----------------3-----------------------|
B-|-----3------------------------------------------5-------------5----------5-----------------------|
G-|-3--------------------------------------5--------------------------------5-----------------------|
D-|-------------------------------------------------------------------------------------------------|
A-|-------------------------------------------------------------------------------------------------|
D-|-------------------------------------------------------------------------------------------------|

Guitar 1
Palm muted
    2:20
e-|-------------------------------------------------------------------------------------------------|
B-|-------------------------------------------------------------------------------------------------|
G-|-------------------------------------------------------------------------------------------------|
D-|-------10-------------10-----------5---------5---------3---------3---------1---------1-----------|
A-|-10-10-10-10-10-10-10-10-10-10-5-5-5-5-5-5-5-5-5-5-3-3-3-3-3-3-3-3-3-3-1-1-1-1-1-1-1-1-1-1-------|
D-|-10-10-10-10-10-10-10-10-10-10-5-5-5-5-5-5-5-5-5-5-3-3-3-3-3-3-3-3-3-3-1-1-1-1-1-1-1-1-1-1-------|
    Shame   on   me   for   the   blues.             Another one returned that I'll never use.

Guitar 3
    2:20
e-|------3---------------3---5--3---------------------3--------3---------1--------1-----------------|
B-|-5---------5----------5---3-----3------------------4--4---------------1--1-----------------------|
G-|-----------------5----5---3------------------------3-----3------------2-----2--------------------|
D-|-------------------------------------------------------------------------------------------------|
A-|-------------------------------------------------------------------------------------------------|
D-|-------------------------------------------------------------------------------------------------|

Guitar 1
Palm muted
    2:29
e-|-------------------------------------------------------------------------------------------------|
B-|-------------------------------------------------------------------------------------------------|
G-|-------------------------------------------------------------------------------------------------|
D-|-----0---------0---------0---------0-------------------------------------------------------------|
A-|-0-0-0-0-0-0-0-0-0-0-0-0-0-0-0-0-0-0-0-0---------------------------------------------------------|
D-|-0-0-0-0-0-0-0-0-0-0-0-0-0-0-0-0-0-0-0-0---------------------------------------------------------|

Guitar 3
    2:29
e-|-3---2-------------------------------------------------------------------------------------------|
B-|-3-----------------------------------------------------------------------------------------------|
G-|-2-----------------------------------------------------------------------------------------------|
D-|-------------------------------------------------------------------------------------------------|
A-|-------------------------------------------------------------------------------------------------|
D-|-------------------------------------------------------------------------------------------------|

Guitar 2
                       2:31
e-|-------------------------------------------------------------------------------------------------|
B-|-------------------------------------------------------------------------------------------------|
G-|-------------------------------------------------------------------------------------------------|
D-|-------------------------------------------------------------------------------------------------|
A-|--------------------2--4--5--1--4--3-------------------------------------------------------------|
D-|-------------------------------------------------------------------------------------------------|

Chorus
Guitar 1
**No more palm mute**
    2:33
e-|-------------------------------------------------------------------------------------------------|
B-|-------------------------------------------------------------------------------------------------|
G-|-------------------------------------------------------------------------------------------------|
D-|-----5---------5---------5---------5---------3---------3---------3---------3---------------------|
A-|-5-5-5-5-5-5-5-5-5-5-5-5-5-5-5-5-5-5-5-5-3-3-3-3-3-3-3-3-3-3-3-3-3-3-3-3-3-3-3-3-----------------|
D-|-5-5-5-5-5-5-5-5-5-5-5-5-5-5-5-5-5-5-5-5-3-3-3-3-3-3-3-3-3-3-3-3-3-3-3-3-3-3-3-3-----------------|
    I  won't  go  gettin'  tired  of  you. I  won't  go  gettin'  tired  of  you.

Guitar 2
    2:33
e-|-------------------------------------------------------------------------------------------------|
B-|-------------------------------------------------------------------------------------------------|
G-|-------------------------------------------------------------------------------------------------|
D-|---5~~~------------------------------------3~~~--------------------------------------------------|
A-|---5~~~------------------------------------3~~~--------------------------------------------------|
D-|-5~~~------------------------------------3~~~----------------------------------------------------|

Guitar 3
    2:33
e-|-------3--------5-----------------------------3---------5----------------------------------------|
B-|----3-----3-----3--------------------------3-----3------3----------------------------------------|
G-|-3--------------3-----------------------3---------------3----------------------------------------|
D-|-------------------------------------------------------------------------------------------------|
A-|-------------------------------------------------------------------------------------------------|
D-|-------------------------------------------------------------------------------------------------|

Guitar 1
    2:42
e-|-------------------------------------------------------------------------------------------------|
B-|-------------------------------------------------------------------------------------------------|
G-|-------------------------------------------------------------------------------------------------|
D-|-----1---------1---------0---------0-------------------------------------------------------------|
A-|-1-1-1-1-1-1-1-1-1-1-0-0-0-0-0-0-0-0-0-0---------------------------------------------------------|
D-|-1-1-1-1-1-1-1-1-1-1-0-0-0-0-0-0-0-0-0-0---------------------------------------------------------|
    I'm  not  getting  tired

Guitar 2
    2:42
e-|-------------------------------------------------------------------------------------------------|
B-|-------------------------------------------------------------------------------------------------|
G-|-------------------------------------------------------------------------------------------------|
D-|---1~~~----------------0~~~----------------------------------------------------------------------|
A-|---1~~~----------------0~~~----------------------------------------------------------------------|
D-|-1~~~----------------0~~~------------------------------------------------------------------------|

Guitar 3
    2:42
e-|-3------3-----------2------2---------------------------------------------------------------------|
B-|-4---------4--------1----------1-----------------------------------------------------------------|
G-|-3---3--------------1---1------------------------------------------------------------------------|
D-|-------------------------------------------------------------------------------------------------|
A-|-------------------------------------------------------------------------------------------------|
D-|-------------------------------------------------------------------------------------------------|

Guitar 1
    2:47
e-|-------------------------------------------------------------------------------------------------|
B-|-------------------------------------------------------------------------------------------------|
G-|-------------------------------------------------------------------------------------------------|
D-|-----5---------5---------5---------5---------3---------3---------3---------3---------------------|
A-|-5-5-5-5-5-5-5-5-5-5-5-5-5-5-5-5-5-5-5-5-3-3-3-3-3-3-3-3-3-3-3-3-3-3-3-3-3-3-3-3-----------------|
D-|-5-5-5-5-5-5-5-5-5-5-5-5-5-5-5-5-5-5-5-5-3-3-3-3-3-3-3-3-3-3-3-3-3-3-3-3-3-3-3-3-----------------|
    I  won't  go  gettin'  tired  of  you. I  won't  go  gettin'  tired  of  you.

Guitar 2
    2:47
e-|-------------------------------------------------------------------------------------------------|
B-|-------------------------------------------------------------------------------------------------|
G-|-------------------------------------------------------------------------------------------------|
D-|---5~~~------------------------------------3~~~--------------------------------------------------|
A-|---5~~~------------------------------------3~~~--------------------------------------------------|
D-|-5~~~------------------------------------3~~~----------------------------------------------------|

Guitar 3
    2:47
e-|-------3--------5-----------------------------3---------5----------------------------------------|
B-|----3-----3-----3--------------------------3-----3------3----------------------------------------|
G-|-3--------------3-----------------------3---------------3----------------------------------------|
D-|-------------------------------------------------------------------------------------------------|
A-|-------------------------------------------------------------------------------------------------|
D-|-------------------------------------------------------------------------------------------------|
[ Tab from: http://www.guitartabs.cc/tabs/f/foo_fighters/tired_of_you_tab_ver_6.html ]
Guitar 1
    2:56
e-|-------------------------------------------------------------------------------------------------|
B-|-------------------------------------------------------------------------------------------------|
G-|-------------------------------------------------------------------------------------------------|
D-|-----1---------1---------0---------0-------------------------------------------------------------|
A-|-1-1-1-1-1-1-1-1-1-1-0-0-0-0-0-0-0-0-0-0---------------------------------------------------------|
D-|-1-1-1-1-1-1-1-1-1-1-0-0-0-0-0-0-0-0-0-0---------------------------------------------------------|
    I'm   not   getting   tired...

Guitar 2
    2:56
e-|-------------------------------------------------------------------------------------------------|
B-|-------------------------------------------------------------------------------------------------|
G-|-------------------------------------------------------------------------------------------------|
D-|---1~~~----------------0~~~----------------------------------------------------------------------|
A-|---1~~~----------------0~~~----------------------------------------------------------------------|
D-|-1~~~----------------0~~~------------------------------------------------------------------------|

Guitar 3
    2:56
e-|-3------3-----------2------2---------------------------------------------------------------------|
B-|-4---------4--------1----------1-----------------------------------------------------------------|
G-|-3---3--------------1---1------------------------------------------------------------------------|
D-|-------------------------------------------------------------------------------------------------|
A-|-------------------------------------------------------------------------------------------------|
D-|-------------------------------------------------------------------------------------------------|

Bridge
Guitar 1
    3:01
e-|-------------------------------------------------------------------------------------------------|
B-|-------------------------------------------------------------------------------------------------|
G-|-------------------------------------------------------------------------------------------------|
D-|-------10-------------10-------------10-------------10-------------------------------------------|
A-|-10-10-10-10-10-10-10-10-10-10-10-10-10-10-10-10-10-10-10-10-------------------------------------|
D-|-10-10-10-10-10-10-10-10-10-10-10-10-10-10-10-10-10-10-10-10-------------------------------------|
    ...of yyyyyyyyyyyooooooooooooooooooohoooooooooooooouuuuu...

Guitar 3
    3:01
e-|-------3---------------------3-------5------3----------------------------------------------------|
B-|-5-----------5---------------5-------3-------------3---------------------------------------------|
G-|--------------------5--------5-------3-----------------------------------------------------------|
D-|-------------------------------------------------------------------------------------------------|
A-|-------------------------------------------------------------------------------------------------|
D-|-------------------------------------------------------------------------------------------------|

Guitar 1
    3:05
e-|-------------------------------------------------------------------------------------------------|
B-|-------------------------------------------------------------------------------------------------|
G-|-------------------------------------------------------------------------------------------------|
D-|-----5---------5---------5---------5-------------------------------------------------------------|
A-|-5-5-5-5-5-5-5-5-5-5-5-5-5-5-5-5-5-5-5-5---------------------------------------------------------|
D-|-5-5-5-5-5-5-5-5-5-5-5-5-5-5-5-5-5-5-5-5---------------------------------------------------------|
    ...uuuu
    3:05
e-|---------3--------------------3------------------------------------------------------------------|
B-|-----4--------4----------4---------4-------------------------------------------------------------|
G-|-3------------------3----------------------------------------------------------------------------|
D-|-------------------------------------------------------------------------------------------------|
A-|-------------------------------------------------------------------------------------------------|
D-|-------------------------------------------------------------------------------------------------|

Guitar 1
    3:09
e-|-------------------------------------------------------------------------------------------------|
B-|-------------------------------------------------------------------------------------------------|
G-|-------------------------------------------------------------------------------------------------|
D-|-------10-------------10-------------10-------------10-------------------------------------------|
A-|-10-10-10-10-10-10-10-10-10-10-10-10-10-10-10-10-10-10-10-10-------------------------------------|
D-|-10-10-10-10-10-10-10-10-10-10-10-10-10-10-10-10-10-10-10-10-------------------------------------|
    ...of yyyyyyyyyyyooooooooooooooooooohoooooooooooooouuuuu...

Guitar 3
    3:09
e-|-------3---------------------3-------5------3----------------------------------------------------|
B-|-5-----------5---------------5-------3-------------3---------------------------------------------|
G-|--------------------5--------5-------3-----------------------------------------------------------|
D-|-------------------------------------------------------------------------------------------------|
A-|-------------------------------------------------------------------------------------------------|
D-|-------------------------------------------------------------------------------------------------|

Guitar 1
    3:14
e-|-------------------------------------------------------------------------------------------------|
B-|-------------------------------------------------------------------------------------------------|
G-|-------------------------------------------------------------------------------------------------|
D-|-----5---------5---------5---------5-------------------------------------------------------------|
A-|-5-5-5-5-5-5-5-5-5-5-5-5-5-5-5-5-5-5-5-5---------------------------------------------------------|
D-|-5-5-5-5-5-5-5-5-5-5-5-5-5-5-5-5-5-5-5-5---------------------------------------------------------|
    ...uuuu            ooohooooohooooohooo.

Guitar 3
    3:14
e-|---------3--------------------2------------------------------------------------------------------|
B-|-----4-------4-----------3---------3-------------------------------------------------------------|
G-|-3------------------2----------------------------------------------------------------------------|
D-|-------------------------------------------------------------------------------------------------|
A-|-------------------------------------------------------------------------------------------------|
D-|-------------------------------------------------------------------------------------------------|

Verse 3
Guitar 1
    3:18
e-|-------------------------------------------------------------------------------------------------|
B-|-------------------------------------------------------------------------------------------------|
G-|-------------------------------------------------------------------------------------------------|
D-|-----5---------5---------5---------5---------5---------5---------5---------5---------------------|
A-|-5-5-5-5-5-5-5-5-5-5-5-5-5-5-5-5-5-5-5-5-5-5-5-5-5-5-5-5-5-5-5-5-5-5-5-5-5-5-5-5-----------------|
D-|-5-5-5-5-5-5-5-5-5-5-5-5-5-5-5-5-5-5-5-5-5-5-5-5-5-5-5-5-5-5-5-5-5-5-5-5-5-5-5-5-----------------|
    I  can  be  your  liar                 I  can  be  your  bearer  of  bad  news

Guitar 3
    3:18
e-|-------3--------5-----------------------------3--------5-----------------------------------------|
B-|----3-----3-----3--------------------------3-----3-----3-----------------------------------------|
G-|-3--------------3-----------------------3--------------3-----------------------------------------|
D-|-------------------------------------------------------------------------------------------------|
A-|-------------------------------------------------------------------------------------------------|
D-|-------------------------------------------------------------------------------------------------|

Guitar 1
    3:28
e-|-------------------------------------------------------------------------------------------------|
B-|-------------------------------------------------------------------------------------------------|
G-|-------------------------------------------------------------------------------------------------|
D-|-----3-------------------3---------3---------1---------1---------0---------0---------------------|
A-|-3-3-3-3-3-3-3-3-3-3-3-3-3-3-3-3-3-3-3-3-1-1-1-1-1-1-1-1-1-1-0-0-0-0-0-0-0-0-0-0-----------------|
D-|-3-3-3-3-3-3-3-3-3-3-3-3-3-3-3-3-3-3-3-3-1-1-1-1-1-1-1-1-1-1-0-0-0-0-0-0-0-0-0-0-----------------|
                                           Sick   and   uninspired   by  the...

Guitar 3
    3:28
e-|-------1-------1---------------------------3--------------------2--------------------------------|
B-|----1-----1----1------------------------4-----4--------------1-----1-----------------------------|
G-|-2-------------0----2----------------------------3--------------------1--------------------------|
D-|-------------------------------------------------------------------------------------------------|
A-|-------------------------------------------------------------------------------------------------|
D-|-------------------------------------------------------------------------------------------------|

Guitar 1
    3:36
e-|-------------------------------------------------------------------------------------------------|
B-|-------------------------------------------------------------------------------------------------|
G-|-------------------------------------------------------------------------------------------------|
D-|-----5---------5---------5---------5---------5---------5---------5---------5---------------------|
A-|-5-5-5-5-5-5-5-5-5-5-5-5-5-5-5-5-5-5-5-5-5-5-5-5-5-5-5-5-5-5-5-5-5-5-5-5-5-5-5-5-----------------|
D-|-5-5-5-5-5-5-5-5-5-5-5-5-5-5-5-5-5-5-5-5-5-5-5-5-5-5-5-5-5-5-5-5-5-5-5-5-5-5-5-5-----------------|
    ...diamonds in your fire               Burning  like  a  flame  inside  of  you.

Guitar 3
    3:36
e-|-------3--------5-----------------------------3---------5----------------------------------------|
B-|----3-----3-----3--------------------------3-----3------3----------------------------------------|
G-|-3--------------3-----------------------3---------------3----------------------------------------|
D-|-------------------------------------------------------------------------------------------------|
A-|-------------------------------------------------------------------------------------------------|
D-|-------------------------------------------------------------------------------------------------|

Guitar 1
    3:46
e-|-------------------------------------------------------------------------------------------------|
B-|-------------------------------------------------------------------------------------------------|
G-|-------------------------------------------------------------------------------------------------|
D-|-----3---------3---------3---------3---------1---------1---------0---------0---------------------|
A-|-3-3-3-3-3-3-3-3-3-3-3-3-3-3-3-3-3-3-3-3-1-1-1-1-1-1-1-1-1-1-0-0-0-0-0-0-0-0-0-0-----------------|
D-|-3-3-3-3-3-3-3-3-3-3-3-3-3-3-3-3-3-3-3-3-1-1-1-1-1-1-1-1-1-1-0-0-0-0-0-0-0-0-0-0-----------------|
                                           Is  this  just  desire  or  the  truth?

Guitar 3
    3:46
e-|-------1-------1---------------------------3-------------------2---------------------------------|
B-|----1-----1----1------------------------4-----4-------------1-----1------------------------------|
G-|-2-------------0----2----------------------------3-------------------1---------------------------|
D-|-------------------------------------------------------------------------------------------------|
A-|-------------------------------------------------------------------------------------------------|
D-|-------------------------------------------------------------------------------------------------|

Prechorus
Guitar 1
    3:55
e-|-------------------------------------------------------------------------------------------------|
B-|-------------------------------------------------------------------------------------------------|
G-|-------------------------------------------------------------------------------------------------|
D-|-----5---------5---------5---------5-----------10-------------10-----------5---------5-----------|
A-|-5-5-5-5-5-5-5-5-5-5-5-5-5-5-5-5-5-5-5-5-10-10-10-10-10-10-10-10-10-10-5-5-5-5-5-5-5-5-5-5-------|
D-|-5-5-5-5-5-5-5-5-5-5-5-5-5-5-5-5-5-5-5-5-10-10-10-10-10-10-10-10-10-10-5-5-5-5-5-5-5-5-5-5-------|
                                           So   shame   on   me   for   the   ruse.

Guitar 3
    3:55
e-|---------3---------------------3-----------------3---------3-------------------------------------|
B-|-----3-----------------------------3--------5---------5----5-------------------------------------|
G-|-3-------------------------------------5-------------------5-------------------------------------|
D-|-------------------------------------------------------------------------------------------------|
A-|-------------------------------------------------------------------------------------------------|
D-|-------------------------------------------------------------------------------------------------|

Guitar 1
    4:04
e-|-------------------------------------------------------------------------------------------------|
B-|-------------------------------------------------------------------------------------------------|
G-|-------------------------------------------------------------------------------------------------|
D-|-------10-------------10-----------5---------5---------3---------3---------1---------1-----------|
A-|-10-10-10-10-10-10-10-10-10-10-5-5-5-5-5-5-5-5-5-5-3-3-3-3-3-3-3-3-3-3-1-1-1-1-1-1-1-1-1-1-------|
D-|-10-10-10-10-10-10-10-10-10-10-5-5-5-5-5-5-5-5-5-5-3-3-3-3-3-3-3-3-3-3-1-1-1-1-1-1-1-1-1-1-------|
    Shame   on   me   for   the   blues.             Another one returned that I'll never use.

Guitar 3
    4:04
e-|------3---------------3---5--3---------------------3-----4------------1-----1--------------------|
B-|-5---------5----------5---3-----3------------------4---------3--------1---------1----------------|
G-|-----------------5----5---3------------------------3--3---------------2--2-----------------------|
D-|-------------------------------------------------------------------------------------------------|
A-|-------------------------------------------------------------------------------------------------|
D-|-------------------------------------------------------------------------------------------------|

Guitar 1
    4:13
e-|-------------------------------------------------------------------------------------------------|
B-|-------------------------------------------------------------------------------------------------|
G-|-------------------------------------------------------------------------------------------------|
D-|-----0---------0---------0---------0-------------------------------------------------------------|
A-|-0-0-0-0-0-0-0-0-0-0-0-0-0-0-0-0-0-0-0-0---------------------------------------------------------|
D-|-0-0-0-0-0-0-0-0-0-0-0-0-0-0-0-0-0-0-0-0---------------------------------------------------------|

Guitar 3
    4:13
e-|-3---2------3------------------------------------------------------------------------------------|
B-|-3------3---3------------------------------------------------------------------------------------|
G-|-2----------2------------------------------------------------------------------------------------|
D-|-------------------------------------------------------------------------------------------------|
A-|-------------------------------------------------------------------------------------------------|
D-|-------------------------------------------------------------------------------------------------|

Guitar 2
                       4:15
e-|-------------------------------------------------------------------------------------------------|
B-|-------------------------------------------------------------------------------------------------|
G-|-------------------------------------------------------------------------------------------------|
D-|-------------------------------------------------------------------------------------------------|
A-|--------------------2--4--5--1--4--3-------------------------------------------------------------|
D-|-------------------------------------------------------------------------------------------------|

Chorus
Guitar 1
    4:17
e-|-------------------------------------------------------------------------------------------------|
B-|-------------------------------------------------------------------------------------------------|
G-|-------------------------------------------------------------------------------------------------|
D-|-----5---------5---------5---------5---------3---------3---------3---------3---------------------|
A-|-5-5-5-5-5-5-5-5-5-5-5-5-5-5-5-5-5-5-5-5-3-3-3-3-3-3-3-3-3-3-3-3-3-3-3-3-3-3-3-3-----------------|
D-|-5-5-5-5-5-5-5-5-5-5-5-5-5-5-5-5-5-5-5-5-3-3-3-3-3-3-3-3-3-3-3-3-3-3-3-3-3-3-3-3-----------------|
    I  won't  go  gettin'  tired  of  you. I  won't  go  gettin'  tired  of  you.

Guitar 2
    4:17
e-|-------------------------------------------------------------------------------------------------|
B-|-------------------------------------------------------------------------------------------------|
G-|-------------------------------------------------------------------------------------------------|
D-|---5~~~------------------------------------3~~~--------------------------------------------------|
A-|---5~~~------------------------------------3~~~--------------------------------------------------|
D-|-5~~~------------------------------------3~~~----------------------------------------------------|

Guitar 3
    4:17
e-|-------3--------5-----------------------------3---------5----------------------------------------|
B-|----3-----3-----3--------------------------3-----3------3----------------------------------------|
G-|-3--------------3-----------------------3---------------3----------------------------------------|
D-|-------------------------------------------------------------------------------------------------|
A-|-------------------------------------------------------------------------------------------------|
D-|-------------------------------------------------------------------------------------------------|

Guitar 1
    4:26
e-|-------------------------------------------------------------------------------------------------|
B-|-------------------------------------------------------------------------------------------------|
G-|-------------------------------------------------------------------------------------------------|
D-|-----1---------1---------0---------0-------------------------------------------------------------|
A-|-1-1-1-1-1-1-1-1-1-1-0-0-0-0-0-0-0-0-0-0---------------------------------------------------------|
D-|-1-1-1-1-1-1-1-1-1-1-0-0-0-0-0-0-0-0-0-0---------------------------------------------------------|
    I'm  not  getting  tired

Guitar 2
    4:26
e-|-------------------------------------------------------------------------------------------------|
B-|-------------------------------------------------------------------------------------------------|
G-|-------------------------------------------------------------------------------------------------|
D-|---1~~~----------------0~~~----------------------------------------------------------------------|
A-|---1~~~----------------0~~~----------------------------------------------------------------------|
D-|-1~~~----------------0~~~------------------------------------------------------------------------|

Guitar 3
    4:26
e-|-3------3-----------2------2---------------------------------------------------------------------|
B-|-4---------4--------1----------1-----------------------------------------------------------------|
G-|-3---3--------------1---1------------------------------------------------------------------------|
D-|-------------------------------------------------------------------------------------------------|
A-|-------------------------------------------------------------------------------------------------|
D-|-------------------------------------------------------------------------------------------------|

Guitar 1
    4:31
e-|-------------------------------------------------------------------------------------------------|
B-|-------------------------------------------------------------------------------------------------|
G-|-------------------------------------------------------------------------------------------------|
D-|-----5---------5---------5---------5---------3---------3---------3---------3---------------------|
A-|-5-5-5-5-5-5-5-5-5-5-5-5-5-5-5-5-5-5-5-5-3-3-3-3-3-3-3-3-3-3-3-3-3-3-3-3-3-3-3-3-----------------|
D-|-5-5-5-5-5-5-5-5-5-5-5-5-5-5-5-5-5-5-5-5-3-3-3-3-3-3-3-3-3-3-3-3-3-3-3-3-3-3-3-3-----------------|
    I  won't  go  gettin'  tired  of  you. I  won't  go  gettin'  tired  of  you.

Guitar 2
    4:31
e-|-------------------------------------------------------------------------------------------------|
B-|-------------------------------------------------------------------------------------------------|
G-|-------------------------------------------------------------------------------------------------|
D-|---5~~~------------------------------------3~~~--------------------------------------------------|
A-|---5~~~------------------------------------3~~~--------------------------------------------------|
D-|-5~~~------------------------------------3~~~----------------------------------------------------|

Guitar 3
    4:31
e-|-------3--------5-----------------------------3---------5----------------------------------------|
B-|----3-----3-----3--------------------------3-----3------3----------------------------------------|
G-|-3--------------3-----------------------3---------------3----------------------------------------|
D-|-------------------------------------------------------------------------------------------------|
A-|-------------------------------------------------------------------------------------------------|
D-|-------------------------------------------------------------------------------------------------|

Guitar 1
    4:40
e-|-------------------------------------------------------------------------------------------------|
B-|-------------------------------------------------------------------------------------------------|
G-|-------------------------------------------------------------------------------------------------|
D-|-----1---------1---------0---------0-------------------------------------------------------------|
A-|-1-1-1-1-1-1-1-1-1-1-0-0-0-0-0-0-0-0-0-0---------------------------------------------------------|
D-|-1-1-1-1-1-1-1-1-1-1-0-0-0-0-0-0-0-0-0-0---------------------------------------------------------|
    I'm   not   getting   tired...

Guitar 2
    4:40
e-|-------------------------------------------------------------------------------------------------|
B-|-------------------------------------------------------------------------------------------------|
G-|-------------------------------------------------------------------------------------------------|
D-|---1~~~----------------0~~~----------------------------------------------------------------------|
A-|---1~~~----------------0~~~----------------------------------------------------------------------|
D-|-1~~~----------------0~~~------------------------------------------------------------------------|

Guitar 3
    4:40
e-|-3------3-----------2------2---------------------------------------------------------------------|
B-|-4---------4--------1----------1-----------------------------------------------------------------|
G-|-3---3--------------1---1------------------------------------------------------------------------|
D-|-------------------------------------------------------------------------------------------------|
A-|-------------------------------------------------------------------------------------------------|
D-|-------------------------------------------------------------------------------------------------|

Guitar 1
    4:44
e-|-------------------------------------------------------------------------------------------------|
B-|-------------------------------------------------------------------------------------------------|
G-|-------------------------------------------------------------------------------------------------|
D-|-----5---------5---------5---------5-----3-----5---------5---------5---------5-----3-------------|
A-|-5-5-5-5-5-5-5-5-5-5-5-5-5-5-5-5-5-5-5-5-3-5-5-5-5-5-5-5-5-5-5-5-5-5-5-5-5-5-5-5-5-3-------------|
D-|-5-5-5-5-5-5-5-5-5-5-5-5-5-5-5-5-5-5-5-5-3-5-5-5-5-5-5-5-5-5-5-5-5-5-5-5-5-5-5-5-5-3-------------|
    ...of you.

Guitar 3
    4:44
e-|-------------3-----------5---------------------3---------------3----5----3-----------------------|
B-|-------3-----------3-----3----------------5---------5----------5----3---------3------------------|
G-|-3-----------------------3--------------------------------5----5----3----------------------------|
D-|-------------------------------------------------------------------------------------------------|
A-|-------------------------------------------------------------------------------------------------|
D-|-------------------------------------------------------------------------------------------------|

Guitar 1
    4:52
e-|-------------------------------------------------------------------------------------------------|
B-|-------------------------------------------------------------------------------------------------|
G-|-------------------------------------------------------------------------------------------------|
D-|-----5---------5---------5---------5-----3-----5---------5---------5---------5-----3-5~~~--------|
A-|-5-5-5-5-5-5-5-5-5-5-5-5-5-5-5-5-5-5-5-5-3-5-5-5-5-5-5-5-5-5-5-5-5-5-5-5-5-5-5-5-5-3-5~~~--------|
D-|-5-5-5-5-5-5-5-5-5-5-5-5-5-5-5-5-5-5-5-5-3-5-5-5-5-5-5-5-5-5-5-5-5-5-5-5-5-5-5-5-5-3-5~~~--------|

Guitar 2
    4:52
e-|-6--5--3-----------------------------------------------------------------------------------------|
B-|----------5--------------------------------------------------------------------------------------|
G-|-------------3-----------------------------------------------------------------------------------|
D-|----------------5--3--5--------------------------------------------------------------------------|
A-|-------------------------------------------------------------------------------------------------|
D-|-------------------------------------------------------------------------------------------------|

Guitar 3
    4:52
e-|-------------3-----------5---------------------3---------------3----5----3-----------------------|
B-|-------3-----------3-----3----------------5---------5----------5----3---------3------------------|
G-|-3-----------------------3--------------------------------5----5----3----------------------------|
D-|-------------------------------------------------------------------------------------------------|
A-|-------------------------------------------------------------------------------------------------|
D-|-------------------------------------------------------------------------------------------------|
Comments