Foo Fighters - Tired Of You Chords & Tabs

 

Tired Of You Chords & Tabs

Foo Fighters Chords & Tabs

Version: 1 Type: Tab 1 rating
1 star 2 stars 3 stars 4 stars 5 stars
comments

Tired Of You Tab

#----------------------------------PLEASE NOTE---------------------------------#
#This file is the author's own work and represents their interpretation of the #
#song. You may only use this file for private study, scholarship, or research. #
#------------------------------------------------------------------------------#
Foo Fighters
Tired Of You
Tabber: Unknown

Very Easy (p) = palm mute

Standard tuning eadgbe
[ Tab from: http://www.guitartabs.cc/tabs/f/foo_fighters/tired_of_you_tab.html ]
Verses
e--------------------------
b--------------------------
g-----------------------------3------3------
d-------5--------5--------5---5------5-----5-
a-------5--------5--------5---5-(p)--5-(p)-5
e-------3-(p)----3-(p)----3---x------x-----x 

Repeat til I wont go chorus starts


Chorus
e---------------------------------------
b---------------------------------------
g---3------3-----3----------------------
d---5------5-----5----5------5------5---
a---5-(p)--5-(p)-5----3------3------5---     
e---x------x-----x----3-(p)--3-(p)--3---    Chorus  


*SET UP OF LYRICS*

Verse 1
Bridge
Chorus
Verse 2
Chorus
Additional Chorus
Verse 1
Chorus

Any corrections, feel free to e-mail me.

paulskinner007@hotmail.com    
Comments