Foo Fighters - Times Like These Chords & Tabs

 

Times Like These Chords & Tabs

Foo Fighters Chords & Tabs

Version: 6 Type: Tab 0 ratings
1 star 2 stars 3 stars 4 stars 5 stars
comments

Times Like These Tab

-------------------------------------------------------------------------------
			     Times Like These - Foo Fighters
-------------------------------------------------------------------------------

Tabbed by:Adam Pollard		
Email:adampolly@fsmail.net

Tuning:Standard

Intro

e|---5---5---5---5---5---5---5---5---5---5---5---|
B|---x---x---x---x---x---x---x---x---x---x---x---|
G|---5---5---5---5---5---5---5---5---5---5---5---|  x4 
D|---4---4---4---4---4---4---4---4---4---4---4---|
A|---0---5---5---0---5---0---5---5---0---5---5---|
E|-----------------------------------------------|

Guitar 1
e|----------------------------------------------------------------------|
B|----------------------------------------------------------------------|
G|---7--------------5---------------4-----------------------------------| x3
D|---x--------------x---------------x-----------------------------------|
A|---5--------------3---------------2-----------------------------------|
E|----------------------------------------------------------------------|

Guitar2
e|----------------------------------------------------------------------|
B|----------------------------------------------------------------------|
G|-----------------12--11----------------12---11------------------------| x9
D|---0--12--10--0----------0--12--10--0---------------------------------|
A|------------------------------------------------12---10---------------|
E|----------------------------------------------------------------------|

e|---5---5---5---5---5---5---5---5---5---5---5---|
B|---x---x---x---x---x---x---x---x---x---x---x---|
G|---5---5---5---5---5---5---5---5---5---5---5---|  x2
D|---4---4---4---4---4---4---4---4---4---4---4---|
A|---0---5---5---0---5---0---5---5---0---5---5---|
E|-----------------------------------------------|

Verse
Guitar 1
e|---3------------------------------------3-----------------------------------|
B|---2------------------------------------3-----------------------------------|
G|---3------------------------------------2-----------------------------------|
D|---0------------------------------------2-----------------------------------|
A|----------------------------------------0-----------------------------------|
E|----------------------------------------------------------------------------|

Guitar 2
e|---------3--------3--------0-----------------3---------0---------3----------|
B|------------2--------2--------2-----2-----------3---------3---------3-------|
G|---------------3--------3--------3------------------2---------2---------2---|
D|---0-0----------------------------------------------------------------------|
A|-----------------------------------------0-0----------------------------0---|
E|----------------------------------------------------------------------------|

Guitar 1
e|--3-----------------0-------------------------------------------------------|
B|--3-----------------3-------------------------------------------------------|
G|--0-----------------0-------------------------------------------------------|
D|--2-----------------2-------------------------------------------------------|
A|--3-----------------2-------------------------------------------------------|
E|----------------------------------------------------------------------------|

Guitar 2
e|-------3-----------------0--------------------------------------------------|
B|----------3-----3-----------3------3----------------------------------------|
G|-------------0------------------0-------------------------------------------|
D|----------------------------------------------------------------------------|
A|--3-3-----------------------------------------------------------------------|
E|-------------------0-0------------------------------------------------------|

e|---5---5---5---5---5---5---5---5---5---5---5---|
B|---x---x---x---x---x---x---x---x---x---x---x---|
G|---5---5---5---5---5---5---5---5---5---5---5---|  
D|---4---4---4---4---4---4---4---4---4---4---4---|
A|---0---5---5---0---5---0---5---5---0---5---5---|
E|-----------------------------------------------|

Chorus

Guitar 1
e|--3--------------3----------------3-----------------------------|
B|--1--------------0----------------2-----------------------------|
G|--0--------------0----------------3-----------------------------|
D|--2--------------2----------------0-----------------------------|
A|--3--------------2----------------------------------------------|
E|-----------------0----------------------------------------------|

Guitar 2
e|------------------------------------------------------------------|
B|------------------------------------------------------------------|
G|------------------------------------------------------------------|
D|--5-5-5-5-5-5-5-5-5-5-5-5-5-5-5-5-4-4-4-------4-4-----------------|
A|----------------------------------------5-5-5---------------------|
E|------------------------------------------------------------------|

e|---5---5---5---5---5---5---5---5---5---5---5---|
B|---x---x---x---x---x---x---x---x---x---x---x---|
G|---5---5---5---5---5---5---5---5---5---5---5---|  x2
D|---4---4---4---4---4---4---4---4---4---4---4---|
A|---0---5---5---0---5---0---5---5---0---5---5---|
E|-----------------------------------------------|
[ Tab from: http://www.guitartabs.cc/tabs/f/foo_fighters/times_like_these_tab_ver_6.html ]
Verse
Guitar 1
e|---3------------------------------------3-----------------------------------|
B|---2------------------------------------3-----------------------------------|
G|---3------------------------------------2-----------------------------------|
D|---0------------------------------------2-----------------------------------|
A|----------------------------------------0-----------------------------------|
E|----------------------------------------------------------------------------|

Guitar 2
e|---------3--------3--------0-----------------3---------0---------3----------|
B|------------2--------2--------2-----2-----------3---------3---------3-------|
G|---------------3--------3--------3------------------2---------2---------2---|
D|---0-0----------------------------------------------------------------------|
A|-----------------------------------------0-0----------------------------0---|
E|----------------------------------------------------------------------------|

Guitar 1
e|--3-----------------0-------------------------------------------------------|
B|--3-----------------3-------------------------------------------------------|
G|--0-----------------0-------------------------------------------------------|
D|--2-----------------2-------------------------------------------------------|
A|--3-----------------2-------------------------------------------------------|
E|----------------------------------------------------------------------------|

Guitar 2
e|-------3-----------------0--------------------------------------------------|
B|----------3-----3-----------3------3----------------------------------------|
G|-------------0------------------0-------------------------------------------|
D|----------------------------------------------------------------------------|
A|--3-3-----------------------------------------------------------------------|
E|-------------------0-0------------------------------------------------------|

e|---5---5---5---5---5---5---5---5---5---5---5---|
B|---x---x---x---x---x---x---x---x---x---x---x---|
G|---5---5---5---5---5---5---5---5---5---5---5---|  
D|---4---4---4---4---4---4---4---4---4---4---4---|
A|---0---5---5---0---5---0---5---5---0---5---5---|
E|-----------------------------------------------|

Chorus

Guitar 1
e|--3--------------3----------------3-----------------------------|
B|--1--------------0----------------2-----------------------------|
G|--0--------------0----------------3-----------------------------|
D|--2--------------2----------------0-----------------------------|
A|--3--------------2----------------------------------------------|
E|-----------------0----------------------------------------------|

Guitar 2
e|------------------------------------------------------------------|
B|------------------------------------------------------------------|
G|------------------------------------------------------------------|
D|--5-5-5-5-5-5-5-5-5-5-5-5-5-5-5-5-4-4-4-------4-4-----------------|
A|----------------------------------------5-5-5---------------------|
E|------------------------------------------------------------------|

Guitar 1
e|-----------------------------------------------------------------|
B|-----------------------------------------------------------------|
G|---7--------------5---------------4------------------------------|           
D|---x--------------x---------------x------------------------------|
A|---5--------------3---------------2------------------------------|
E|-----------------------------------------------------------------|

Guitar2
e|----------------------------------------------------------------------|
B|----------------------------------------------------------------------|
G|-----------------12--11----------------12---11------------------------| x9
D|---0--12--10--0----------0--12--10--0---------------------------------|
A|------------------------------------------------12---10---------------|
E|----------------------------------------------------------------------|


Guitar 2
e|----------------------------------------------------------------------|
B|----------------------------------------------------------------------|
G|-----------------12--11----------------12--11-------------------------| x4 
D|---0--12--10--0----------0--12--10--0---------------------------------|
A|-----------------------------------------------12---10---12-----------|
E|----------------------------------------------------------------------|

Guitar 1
e|--3--------------3----------------3-----------------------------|
B|--1--------------0----------------2-----------------------------|
G|--0--------------0----------------3-----------------------------|
D|--2--------------2----------------0-----------------------------|
A|--3--------------2----------------------------------------------|
E|-----------------0----------------------------------------------|

Guitar 2
e|------------------------------------------------------------------|
B|------------------------------------------------------------------|
G|------------------------------------------------------------------|
D|--5-5-5-5-5-5-5-5-5-5-5-5-5-5-5-5-4-4-4-------4-4-----------------|
A|----------------------------------------5-5-5---------------------|
E|------------------------------------------------------------------|

Outro
e|---------3----------------0--------------5------------------------|
B|------------3----------------3--------------5---------------------|
G|---------------5----------------0--------------7------------------|
D|--5--5------------5----------------7--7-----------7---------------|
A|--3--3--------------2--2-----------5--5---------------------------|
E|--------------------0--0------------------------------------------|

e|------------------------------------------------------------------|
B|------------------------------------------------------------------|
G|------------------------------------------------------------------|
D|--2---------------------------------------------------------------|
A|--3---------------------------------------------------------------|
E|------------------------------------------------------------------|
Comments