Foo Fighters - Times Like These Chords & Tabs

 

Times Like These Chords & Tabs

Foo Fighters Chords & Tabs

Version: 5 Type: Tab 0 ratings
1 star 2 stars 3 stars 4 stars 5 stars
comments

Times Like These Tab

Ok, I've updated my tab, this is how I saw them play the first two parts on
Joules Holland the other night, so I'm pretty sure it'll be right, but on the
first riff I'm unsure whether the G string is muted or played open, you make
your minds up.

|-5-5-5-5-5--5-5-5-5-5--5-5-5-
|-3-3-3-3-3--3-3-3-3-3--3-3-3-
|-x-x-x-x-x--x-x-x-x-x--x-x-x-
|-4-4-4-4-4--4-4-4-4-4--4-4-4-
|-0-5-5-5-5--0-5-5-5-5--5-5-5-
|-----------------------------
[ Tab from: http://www.guitartabs.cc/tabs/f/foo_fighters/times_like_these_tab_ver_5.html ]
|----------------------------------------
|----------------------------------------
|----------12-11----------12-11----------
|-12-10----------12-10-------------------
|-------10-------------10-------12-10----
|-------------------------------------10-

Then he picks away at these chords
|-2----3----2----0-
|-3----1----3----0-
|-2----0----4----0-
|-0----2----4----2-
|------3----2----2-
|----------------0-

|-5-5-5-5-5--5-5-5-5-5--5-5-5-
|-3-3-3-3-3--3-3-3-3-3--3-3-3-
|-x-x-x-x-x--x-x-x-x-x--x-x-x-
|-4-4-4-4-4--4-4-4-4-4--4-4-4-
|-0-5-5-5-5--0-5-5-5-5--5-5-5-
|-----------------------------

|-----------------------------------------------
|-----------------------------------------------
|-5---------------------------------------------
|-5------------------------2-------------2------
|-3------------------------2-------------0------
|--------------------------0-------------0------
 It's times like these you learn to live again
Comments