Foo Fighters - Times Like These Chords & Tabs

 

Times Like These Chords & Tabs

Foo Fighters Chords & Tabs

Version: 4 Type: Tab 0 ratings
1 star 2 stars 3 stars 4 stars 5 stars
comments

Times Like These Tab

Band: Foo Fighters
Song: Times Like These
Album: ONE BY ONE
Tuning: EADGBe
Tabbed by: Don Foomino


Kick ass song off the new record! Probably the best! 
This is as close as I could get to it.  Listen to it and try to figure 
out the timing on your own.

Intro:

 guitar 1 plays
 e|--5--5--5--5--5--5--5--5--5--5--5--|
 B|--x--x--x--x--x--x--x--x--x--x--x--|
 G|--5--5--5--5--5--5--5--5--5--5--5--|  4x
 D|--4--4--4--4--4--4--4--4--4--4--4--|
 A|--0--5--5--0--5--0--5--5--0--5--5--|
 E|-----------------------------------|

 then...
 
 guitar 1 plays
 e|--2-----------------------0--------------------------------0--|
 B|--3-----------------------1--------------------------------0--|
 G|--2-----------------------0--------------------------------0--|4x
 D|--0-----------------------2--------------------------------2--|
 A|--0-----------------------3--------------------------------2--|
 E|--------------------------------------------------------------|
 
 guitar 2 plays                     
 e|-------------------------------------|     
 B|-----------8-7--------8-7------------|    
 G|-----7-5--------7-5------------------| 9x  
 D|--0-------------------------7-5------|(last time slide up) 
 A|-------------------------------------| 
 E|-------------------------------------|

 
 then...
 
 guitar 1 plays
 e|--5--5--5--5--5--5--5--5--5--5--5--|
 B|--x--x--x--x--x--x--x--x--x--x--x--|
 G|--5--5--5--5--5--5--5--5--5--5--5--|  2x
 D|--4--4--4--4--4--4--4--4--4--4--4--|
 A|--0--5--5--0--5--0--5--5--0--5--5--|
 E|-----------------------------------|


Verse:

 e|--2-------0------3--------0------5--5--5--5--5--5--5--5--5--5--5--|
 B|--3-------1------1--------0------x--x--x--x--x--x--x--x--x--x--x--|
 G|--2-------2------0--------0------5--5--5--5--5--5--5--5--5--5--5--|
 D|--0-------2------2--------2------4--4--4--4--4--4--4--4--4--4--4--|
 A|--0-------0------3--------2------0--5--5--0--5--0--5--5--0--5--5--|
 E|------------------------------------------------------------------|

 e|--2-------0------3--------0------5--5--5--5--5--5--5--5--5--5--5--|
 B|--3-------1------1--------0------x--x--x--x--x--x--x--x--x--x--x--|
 G|--2-------2------0--------0------5--5--5--5--5--5--5--5--5--5--5--|
 D|--0-------2------2--------2------4--4--4--4--4--4--4--4--4--4--4--|
 A|--0-------0------3--------2------0--5--5--0--5--0--5--5--0--5--5--|
 E|------------------------------------------------------------------|
[ Tab from: http://www.guitartabs.cc/tabs/f/foo_fighters/times_like_these_tab_ver_4.html ]
 e|--5--5--5--5--5--5--5--5--5--5--5--|
 B|--x--x--x--x--x--x--x--x--x--x--x--|
 G|--5--5--5--5--5--5--5--5--5--5--5--|  
 D|--4--4--4--4--4--4--4--4--4--4--4--|
 A|--0--5--5--0--5--0--5--5--0--5--5--|
 E|-----------------------------------|


Chorus:

 guitar 1 plays
 e|--3----------------0-----------------5------------------------|
 B|--1----------------3-----------------3------------------------|
 G|--2----------------0-----------------2------------------------|4x
 D|--3----------------2-----------------0------------------------|
 A|--0----------------2-----------------0------------------------|
 E|--------------------------------------------------------------|

 guitar 2 plays
 e|--------------------------------------------------------------|
 B|--------------------------------------------------------------|
 G|--------------------------------------------------------------|4x
 D|--5------5---5-----4-------4---4-----4h5-4------------4-------|
 A|-------------------------------------------------5------------|
 E|--------------------------------------------------------------|
 
 then...
 
 guitar 1 plays
 e|--5--5--5--5--5--5--5--5--5--5--5--|
 B|--x--x--x--x--x--x--x--x--x--x--x--|
 G|--5--5--5--5--5--5--5--5--5--5--5--|2x  
 D|--4--4--4--4--4--4--4--4--4--4--4--|
 A|--0--5--5--0--5--0--5--5--0--5--5--|
 E|-----------------------------------|

Then play Verse 1x and Chorus 1x
 

Bridge:
 
 guitar 1 plays
 e|--2--------------------------0---------------------------0--|
 B|--3--------------------------1---------------------------0--|
 G|--2--------------------------0---------------------------0--|10x
 D|--0--------------------------2---------------------------2--|
 A|--0--------------------------3---------------------------2--|
 E|------------------------------------------------------------|
 
 guitar 2 plays                     
 e|-------------------------------------|     
 B|-----------8-7--------8-7------------|    
 G|-----7-5--------7-5------------------| 16x  
 D|--0-------------------------7-5------|
 A|-------------------------------------|
 E|-------------------------------------|

 then guitar 2 turns up distortion and plays                     
 e|-------------------------------------|     
 B|-----------8-7--------8-7------------|    
 G|-----7-5--------7-5------------------| 4x  
 D|--0-------------------------7-5-7----|
 A|-------------------------------------|
 E|-------------------------------------|

Then Chorus 2x

Outro:

 guitar 1 plays
 e|--3--------------0------------------5------------------------|
 B|--1--------------3------------------3------------------------|
 G|--2--------------0------------------2------------------------|4x
 D|--3--------------2------------------0------------------------|
 A|--0--------------2------------------0------------------------|
 E|-------------------------------------------------------------|
Comments