Foo Fighters - Times Like These Chords & Tabs

 

Times Like These Chords & Tabs

Foo Fighters Chords & Tabs

Version: 3 Type: Tab 0 ratings
1 star 2 stars 3 stars 4 stars 5 stars
comments

Times Like These Tab

Foo Fighters
Times Like These
One By One
Submitted by- Adam Palumbo
----------------------------------------------------------------------
standard tuning- EADGBe

intro --
e-------5---------|
b-------0---------|
g-------5---------|
d-------0---------|
a-------5---------|(play the 5 on this string on and off, otherwise play X)
E-----------------|

Guitar 1 --
e-----------------------------------------|repeat as needed
b-----------------------------------------|
g------------12-11------------12-11-------|
d-0--12-10-0-------0-12-10-0--------------|
a-----------------------------------12-10-|
E-----------------------------------------|
[ Tab from: http://www.guitartabs.cc/tabs/f/foo_fighters/times_like_these_tab_ver_3.html ]
Guitar 2 --
e-2---------------|play these over top of guitar 1
b-3--5------------|
g-2--5--0---------|
d-0--5--0---------|
a----3--2---------|
E-----------------|
the rest is so easy i dont feel like tabbing it
verse-  D, Am, C, Em, intro chord. they don't play straight chords, but broken notes based on these chords(except for the intro chord).
chorus- C, Em, D. this follows the same rule as the verse. pluck the g-string open throughout the chorus too.
-- so there you go, you know the best song off One By One. i assure you this tab is %100 correct,but if you have any questions or comments email me
blink182amp@aol.com (send email with "tab" in the subject line)
Comments