Foo Fighters - Stacked Actors Chords & Tabs

 

Stacked Actors Chords & Tabs

Foo Fighters Chords & Tabs

Version: 2 Type: Bass Tab 1 rating
1 star 2 stars 3 stars 4 stars 5 stars
comments

Stacked Actors Bass Tab

Foo Fighters
Stacked Actors
There is Nothing Left to Lose
1999

This version has a little variation on the verses...

Intro/Chorus 
G|---------------------------------------------------------|
D|---------------------------------------------------------|
A|--0-0--3-5-5-3/1010-3-5-5-3/8-8-3-6-6-5-3-5----3-6-6-5-3-|
E|---------------------------------------------------------|


Verse/Outro (you can play around with this to make it sound better, but this is the basis for the verses)
G|-----2---------------|
D|---2-----------------|	  
A|-0------3-0-3--5-5-3-|	
E|---------------------|	

[ Tab from: http://www.guitartabs.cc/tabs/f/foo_fighters/stacked_actors_btab_ver_2.html ]
Pre Chorus
G|---------------------------|
D|---------------------------|	  
A|-0----0----0--0--0-0-0-12\-|	
E|---------------------------|	

Solo
G|---------------------------------------|
D|---------------------------------------|
A|-0------0------0------6-6-5-3--6-6-5-3-|
E|---------------------------------------|

G|-----------------------------------------------------------------|
D|-----------------------------------------------------------------|
A|--0---0-3-5---5p3-0---0-3-5---5p3-0---0-3-5---6-6-5-3---6-6-5-3--|
E|-----------------------------------------------------------------| x4
Comments