Foo Fighters - See You Chords & Tabs

 

See You Chords & Tabs

Foo Fighters Chords & Tabs

Version: 1 Type: Tab 0 ratings
1 star 2 stars 3 stars 4 stars 5 stars
comments

See You Tab

   
See You - The Foo Fighters
----------------------------------------------------------------------------
Tabbed by: Rufi
Email: kamayha_kamayha_blast@hotmail.com

Tuning: 1= d  4= D
        2= B  5= A
        3= G  6= E

VERSE:-

e|-5---------------1----1-------------0----0------------5----5----------1--
B|-5---------------1----1-------------0----0------------5----5----------1--
G|-6--------2--x---2----2--2---1---x--1----1---1/6--x---6----6--6\2--x--2--
D|-7--x--3--3--x-----------3---2---x-----------2/7--x-----------7\3--x-----
A|-7--x--3--3--x-----------3---2---x-----------2/7--x-----------7\3--x-----
D|------1--x-----------1---0---x-----------0/5--x-----------5\1--x-----

e|-1-------------0--0-----------5----5----------1----1-----------0---0-----
B|-1-------------0--0-----------5----5----------1----1-----------0---0-----
G|-2--2---1---x--1--1--1/6---x--6----6--6\2--x--2----2--2--1--x--1---1--1/-
D|----3---2---x--------2/7---x----------7\3--x----------3--2--x---------2/-
A|----3---2---x--------2/7---x----------7\3--x----------3--2--x---------2/-
D|----1---0---x--------0/5---x----------5\1--x----------1--0--x---------0/-

CHORUS:-

e|------5--5----5--5--x--5--x--5----5--5--x--5--5--5----5----5--5--5----5--
B|------5--5----5--5--x--5--x--5----5--5--x--5--5--5----5----5--5--5----5--
G|------6--6----6--6--x--7--x--7----7--7--x--6--6--6----6----7--7--7----7--
D|-7---------------7-----7--x--7----7--7--x--7--7--7----7----7--7--7----7--
A|-7---------------7-----5--x--5----5--5--x--7--7--7----7----5--5--5----5--
D|-5---------------5--------x----------------5--5--5----5------------------

e|5--5--5----5----5--5--5----5---4--4--4----4---5--5--5----5---1--1--1----1
B|5--5--5----5----5--5--5----5---4--4--4----4---5--5--5----5---1--1--1----1
G|6--6--6----6----7--7--7----7---5--5--5----5---6--6--6----6---2--2--2----2
D|7--7--7----7----7--7--7----7---6--6--6----6---7--7--7----7---3--3--3----3
A|7--7--7----7----5--5--5----5---6--6--5----6---7--7--7----7---3--3--3----3
D|5--5--5----5-------------------4--4--4----4---5--5--5----5---1--1--1----1

e|-0--0--0----0---5--5--5----5---1--1--1----1---0--0--0----0---5--5--5----5
B|-0--0--0----0---5--5--5----5---1--1--1----1---0--0--0----0---5--5--5----5
G|-1--1--1----1---6--6--6----6---2--2--2----2---1--1--1----1---6--6--6----6
D|-2--2--2----2---7--7--7----7---3--3--3----3---2--2--2----2---7--7--7----7
A|-2--2--2----2---7--7--7----7---3--3--3----3---2--2--2----2---7--7--7----7
D|-0--0--0----0---5--5--5----5---1--1--1----1---0--0--0----0---5--5--5----5

BRIDGE:-

e|--3--3--3--3--3--3--3--3--3--3--3--3--3--3--3--3--5--5--5---5--8---8-----
B|--3--3--3--3--3--3--3--3--3--3--3--3--3--3--3--3--5--5--5---5--8---8-----
G|--4--4--4--4--4--4--4--4--4--4--4--4--4--4--4--4--6--6--6---6--9---9-----
D|--5--5--5--5--5--5--5--5--5--5--5--5--5--5--5--5--7--7--7---7--10--10----
A|--5--5--5--5--5--5--5--5--5--5--5--5--5--5--5--5--7--7--7---7--10--10----
D|--3--3--3--3--3--3--3--3--3--3--3--3--3--3--3--3--5--5--5---5--8---8-----
[ Tab from: http://www.guitartabs.cc/tabs/f/foo_fighters/see_you_tab.html ]
e|-8---8---8---3--3--3--3--3--3--3--3--1--1--1--1--1--1--1--1--0----5------
B|-8---8---8---3--3--3--3--3--3--3--3--1--1--1--1--1--1--1--1--0----5------
G|-9---9---9---4--4--4--4--4--4--4--4--2--2--2--2--2--2--2--2--1----6------
D|-10--10--10--5--5--5--5--5--5--5--5--3--3--3--3--3--3--3--3--2----7------
A|-10--10--10--5--5--5--5--5--5--5--5--3--3--3--3--3--3--3--3--2----7------
D|-8---8---8---3--3--3--3--3--3--3--3--1--1--1--1--1--1--1--1--0----5------

The 2nd guitar comes in during the chorus & also plays in the bridge so, here it is:-

2ND Guitar CHORUS:-
e|-------------------------------------------------------------------------
B|-------10------------10------------10------------10------------10--------
G|----12-----12-----12-----12-----12-----12-----12-----12-----12-----12----
D|-11------------12------------11------------12------------11--------------
A|-------------------------------------------------------------------------
D|-------------------------------------------------------------------------

e|---------------------------------9------------8----------7----------9----
B|-------10------------9--------10----10-----10----10----9----9----10----10
G|----12-----12-----11----11--9-----------10-----------9---------9---------
D|-12------------10--------------------------------------------------------
A|-------------------------------------------------------------------------
D|-------------------------------------------------------------------------

e|-------8---------7-----9-------------------------------------------------
B|----10----10---9----7--10------------------------------------------------
G|-10----------9---------9-------------------------------------------------
D|-------------------------------------------------------------------------
A|-------------------------------------------------------------------------
D|-------------------------------------------------------------------------

2ND Guitar BRIDGE:-

e|----------------------------------------------------------9--------------
B|-------8-----------8-----------8-----------8-----------10---10-----------
G|----7-----7-----7-----7-----7-----7-----7-----7------9---------9---------
D|-9-----------9-----------9-----------9-----------11----------------------
A|-------------------------------------------------------------------------
D|-------------------------------------------------------------------------

e|-------------8-----------------------------------------------------------
B|-----------8----------8-----------8-----------6-----------6----5---------
G|-----9--9----------7-----7-----7-----7-----8-----8-----8-------7---------
D|-11-----10------9-----------9-----------7-----------7----------6---------
A|-------------------------------------------------------------------------
D|-------------------------------------------------------------------------

That should be all you need, if not, email me.

| /  slide up
| \  slide down
| h  hammer-on
| p  pull-off
| ~  vibrato
| +  harmonic
| x  Mute note
===============================================================================
Comments