Foo Fighters - Resolve Chords & Tabs

 

Resolve Chords & Tabs

Foo Fighters Chords & Tabs

Version: 2 Type: Tab 0 ratings
1 star 2 stars 3 stars 4 stars 5 stars
comments

Resolve Tab

   
Foo Fighters - Resolve

Artist: Foo Fighters
Album: In Your Honor
Genre: Rock

Tuning: eBGDAE


Intro
e||-----------------||
B||-----------------||
G||-----------------||
D||--5-5-5-5-5-5-5--||
A||--5-5-5-5-5-5-5--||
E||--2-3-2-3-2-3-2--||

e||----------------------------------------------|
B||----------------------------------------------|
G||----------------------------------------------|
D||--11--7--9-----7--9-----------7--9--7------9--|
A||------------9--------7--9/10-----------10-----|
E||----------------------------------------------|

e||---------------------------------------------------------||
B||---------------------------------------------------------||
G||--------------------------------------9------------------||
D||--12--11--9--11--7--9--9--12--11--12-----12--7--9--7--9--||
A||---------------------------------------------------------||
E||---------------------------------------------------------||

e||-----------------||
B||-----------------||
G||-----------------||
D||--5-5-5-5-5-5-5--||
A||--5-5-5-5-5-5-5--||
E||--2-3-2-3-2-3-2--||

[ Tab from: http://www.guitartabs.cc/tabs/f/foo_fighters/resolve_tab_ver_2.html ]
Verse
     A             Em7          G             D
e||--0-0-0-0-0-0-0-0-0-0-0-0----3-3-3-3-3-3-3-2-2-2-2-2-2-2--||
B||--2-2-2-2-2-2-2-0-3-3-3--3-3-3-3-3-3-3-3-3-3-3-3-3-3-3-3--||
G||--2-2-2-2-2-2-2-0-0-0-0---0--0-0-0-0-0-0-0-2-2-2-2-2-2-2--||
D||--2-2-2-2-2-2-2-2-2-2-2------0-0-0-0-0-0-0-0-0-0-0-0-0-0--||
A||--0-0-0-0-0-0-0-2-2-2-2------2-2-2-2-2-2-2----------------||
E||----------------0-0-0-0------3-3-3-3-3-3-3----------------||


Pre-Chorus
e||-----------------||
B||-----------------||
G||-----------------||
D||--5-5-5-5-5-5-5--||
A||--5-5-5-5-5-5-5--||
E||--2-3-2-3-2-3-2--||


Chorus
     A             Em7          D             G
e||--0-0-0-0-0-0-0-0-0-0-0-0----2-2-3-2-2-0-2-3-3-3-3-3-3-3--||
B||--2-2-2-2-2-2-2-0-3-3-3--3-3-3-3-3-3-3-3-3-3-3-3-3-3-3-3--||
G||--2-2-2-2-2-2-2-0-0-0-0---0--2-2-2-2-2-2-2-0-0-0-0-0-0-0--||
D||--2-2-2-2-2-2-2-2-2-2-2------0-0-0-0-0-0-0-0-0-0-0-0-0-0--||
A||--0-0-0-0-0-0-0-2-2-2-2--------------------2-2-2-2-2-2-2--||
E||----------------0-0-0-0--------------------3-3-3-3-3-3-3--||

e||-----------------||
B||-----------------||
G||-----------------||
D||--5-5-5-5-5-5-5--||
A||--5-5-5-5-5-5-5--||
E||--2-3-2-3-2-3-2--||
Comments