Foo Fighters - Razor Chords & Tabs

 

Razor Chords & Tabs

Foo Fighters Chords & Tabs

Version: 2 Type: Tab 2 ratings
1 star 2 stars 3 stars 4 stars 5 stars
comments

Razor Tab

   
Foo Fighters - Razor
Easy to play and sounds pretty good....

These are some corrections, instead of playing the a or d string after hitting the fret play the 6th
string which is in dropped D.

e ---------------------------------------
b ---------------------------------------
g ---------------------------------------        x8
d ---------------------------------------
a -5p0-----5p0-----5p0-----5p0-----------
D ------0-------0-------0-------0--------

This is the verse part

e -------------------------------------------------------
b -------------------------------------------------------
g -------------------------------------------------------
d --------------------------12p0---11p0---14p0---12p0----
a -4p0---7p0---9p0---12p0--------------------------------
D -----0-----0-----0-------------0------0------0------0--

Do that like a heap of times its 12 I think.

CHORUS

Riff A
e -------------------------
b -------------------------
g -------------------------x2
d -7p0---7p0---7p0---7p0---
a -------------------------
D -----0-----0-----0-----0-
[ Tab from: http://www.guitartabs.cc/tabs/f/foo_fighters/razor_tab_ver_2.html ]
Riff B
e --------------------------
b --------------------------
g --------------------------x2
d -6p0---6p0---6p0----6p0---
a --------------------------
D -----0-----0-----0------0-

Riff C
e ------------------------------------------------------- 
b -------------------------------------------------------
g -------------------------------------------------------
d -9p0---7p0---5p0---4p0---5p0---7p0---9p0---7p0---------
a -------------------------------------------------------
D -----0-----0-----0-----0-----0-----0-----0-------------

Then Riff A x 2
     Riff B x 1   
     Riff C x 1

After that you do the verse then the chorus and this:

BRIDGE

e ----------------------------- 
b -----------------------------
g ----------------------------- x 2
d -11p0---11p0---11p0---11p0---
a -----------------------------
D ------0------0------0------0-


e ------------------------- 
b -------------------------
g -------------------------   x2
d -9p0---9p0---9p0---9p0---
a -------------------------
D -----0-----0-----0-----0-

then do the bridge 4 times


Any corrections to jaypea@hotmail.com

Cheers and enjoy

JASON PICKUP
		
Comments