Foo Fighters - Razor Chords & Tabs

 

Razor Chords & Tabs

Foo Fighters Chords & Tabs

Version: 1 Type: Tab 2 ratings
1 star 2 stars 3 stars 4 stars 5 stars
comments

Razor Tab

   
Foo Fighters - Razor
Easy to play and sounds pretty good....

e ---------------------------------------
b ---------------------------------------
g ---------------------------------------        x8
d ---------------------------------------
a -5p0--0--5p0--0--5p0--0--5p0--0--------
E ---------------------------------------

This is like the verse part

e -------------------------------------------------------
b -------------------------------------------------------
g -------------------------------------------------------
d --------------------------12p0-0-11p0-0-14p0-0-12p0-0--
a -4p0-0-7p0-0-9p0-0-12p0-0------------------------------
E -------------------------------------------------------

Do that 12 times

CHORUS

Riff A
e ------------------- 
b -------------------
g -------------------      x2
d -7p0-0-7p0-0-7p0-0-
a -------------------
E -------------------
[ Tab from: http://www.guitartabs.cc/tabs/f/foo_fighters/razor_tab.html ]
Riff B
e ---------------------
b ---------------------
g ---------------------     x2
d -6p0-0-6p0-0-6p0-6p0-
a ---------------------
E ---------------------

Riff C
e ------------------------------------------------------- 
b -------------------------------------------------------
g -------------------------------------------------------
d -9p0-0-7p0-0-5p0-0-4p0-0-5p0-0-7p0-0-9p0-0-7p0---------
a -------------------------------------------------------
E -------------------------------------------------------

Then Riff A x 2
     Riff B x 1   
     Riff C x 1

After that you do the verse then the chorus and this:

BRIDGE

e ----------------------------- 
b -----------------------------
g ----------------------------- x 2
d -11p0-0-11p0-0-11p0-0-11p0-0-
a -----------------------------
E -----------------------------


e ------------------------- 
b -------------------------
g -------------------------   x2
d -9p0-0-9p0-0-9p0-0-9p0-0-
a -------------------------
E -------------------------

then do the bridge 4 times

so overall its
Verse
Chorus
Verse
Chorus 
Bridge
Verse
Chorus 
Bridge
Verse

Email me with any enquiries or corrections at jaypea@hotmail.com
Jason
Comments