Foo Fighters - Overdrive Chords & Tabs

 

Overdrive Chords & Tabs

Foo Fighters Chords & Tabs

Version: 2 Type: Tab 0 ratings
1 star 2 stars 3 stars 4 stars 5 stars
comments

Overdrive Tab

   
INTRO

first tab ever dont like it ...........well really I dont care


E|------------------------------------------------------|
B|------------------------------------------------------|
G|------------------------------------------------------|
D|-2\4--2--0-----------0-----5-7~~~(hold)---------------|
A|------------2--0--2-----2-----------------------------|
E|------------------------------------------------------|


|---5-----5-----5---5-----5-----5-|
B|-8---8-----8-----7---7-----7-----|        \
G|-------7-----7---------7-----7---|    ---- \
D|---------------------------------|    ---- /   x 4
A|---------------------------------|        /
E|---------------------------------|


   Am                G             D
e|--------8----------------7-------2---5/7--5--3--2-----5-|
B|---10-----10---------8-----8-----3-----------------3--7-|
G|-9----9------9-----7---7-----7---2--------------------7-|
D|--------------------------------------------------------|
A|--------------------------------------------------------|
E|--------------------------------------------------------|



Last Chorus
===========
[ Tab from: http://www.guitartabs.cc/tabs/f/foo_fighters/overdrive_tab_ver_2.html ]
   D9                        A4
e|-------------------------------|
B|-------------------------------|
G|-------------------------------|
D|-2/4--2--0-----------0-----0h2-|
A|------------2--0--2-----2------|
E|-------------------------------|

   D9                        A4
e|-------------------------------|
B|-------------------------------|
G|-------------------------------|
D|-2/4--2--0-----------0---------|
A|------------2--0--2-----2--0---|
E|-------------------------------|

   D9                        Am
e|-------------------------------|
B|-------------------------------|
G|-------------------------------|
D|-2/4--2--0-----------0-----0h2-|
A|------------2--0--2-----2------|
E|-------------------------------|

         G -> during the slide
e|------------------------------------------|
B|------------------------------------------|
G|-------7/---9/--11/---12---7/---9/---11/--|
D|--2/4-------------------------------------|
A|-------5/---7/---9/---10---5/---7/----9/--|
E|------------------------------------------|

e|-------------------------------------------------------0-|
B|-------------------------------------------------------3-|
G|--12---14/---12/---11/---9---14/---16/---17/---16------2-|
D|-------------------------------------------------------0-|
A|--10---12/---10/----9/---7---12/---14/---15/---14--------|
E|---------------------------------------------------------|

KURT/DUSTIN
ENJOY!
Comments