Foo Fighters - Over And Out Chords & Tabs

 

Over And Out Chords & Tabs

Foo Fighters Chords & Tabs

Version: 3 Type: Tab

Over And Out Tab

Verse- do this once through for an intro then two more times and go straight into the prechorus
e---------------------------------------------------------------------------|
B---------------------------------------------------------------------------|
G--------------0------0-----------0-----------------------------------------|
D-----------------------------------------------4/5---4----2p0----0---------|
A-----2--------------------2------------0------------0----0----0------------|
E--0-----0------------------------------------------------------------------|


e---------------------------------------------------------------------------|
B---------------------------------------------------------------------------|
G--------------0------0------------0------------------------------2p0-------|
D-----------------------------------------------4/5-------2p0----------2p0--|
A----2--------------------2---------------0-----------0--------0------0-----|
E-0-----0-------------------------------------------------------------------|

[ Tab from: http://www.guitartabs.cc/tabs/f/foo_fighters/over_and_out_tab_ver_3.html ]
e---------------------------------------------------------------------------|
B---------------------------------------------------------------------------|
G--------------0-0----0-------------------0---------------------------------|
D-------------------------4/5---4----2p0------------0------0----------------|
A----2-------------2----0-----0----0-------------2-------0------------------|
E--0---0--------------------------------------3-------2-----repeat from top-|


Prechorus
e---------------------------------------------------------------------------|
B---------------------------------------------------------------------------|
G-----------------------0---0-----------------------------------0-----0-----|
D-----0-----0-----------------------------0-----0---------------------------|
A---2-----0------2--------------2-2-----2-----0-------2---------------------|
E-3-----2------0---0------------------3-----2------0----0-------------------|


Chorus-the beggining is actually the second half of the prechorus starting with the 
"shatter from the start"
e----------------------------------------3-------3-------3------------------|
B----------------------------------------3-------3-------3------------------|
G----------------------------------------2-------0-------2------------------|
D-----0------0----------2----------------------------------------0-----0----|
A---2------0------------2--------------------------------------2-----0------|
E-3------2---------------------------------------------------3-----2--------|
straight to verse and repeat

Well, this is only the intro into the chorus, and i dont even think i did the chorus 
correctly, anyone who wants to take this and complete the second half of the song is more 
welcom to, But I hope you guys think it sounds okay