Foo Fighters - Over And Out Chords & Tabs

 

Over And Out Chords & Tabs

Foo Fighters Chords & Tabs

Version: 1 Type: Chords 1 rating
1 star 2 stars 3 stars 4 stars 5 stars
comments

Over And Out Chords

   
#----------------------------------PLEASE NOTE---------------------------------#
#This file is the author's own work and represents their interpretation of the #
#song. You may only use this file for private study, scholarship, or research. #
#------------------------------------------------------------------------------#

Date: 05.07.04

From: Idar Wiik (Cheabz) (idarwiik@hotmail.com)

Song:   Over and Out
Artist: Foo Fighters
Album:  In Your Honor
Lyrics: Provided by www.azlyrics.com

Tuning: EADGBe (normal)

Aupa gente.
This will be my second tab from the new album of foo fighters. Enjoy.
1st, 2nd and 3rd ending are the endings of riff 1 played throughout the song.


[ Tab from: http://www.guitartabs.cc/tabs/f/foo_fighters/over_and_out_crd.html ]
  Riff 1  1st ending2nd ending  3rd ending
e|---------------|---------------------|-------------------------|---------------------|
B|---------------|---------------------|-------------------------|---------------------|
G|-------0-------|---0-----------------|---0-------------2p0-----|---0---------------0-|
D|-------5-5---5-|---4h5---4---2p0---0-|---4h5---4---2p0-----2p0-|---4h5---4---2p0-----|
A|---2-------2---|-0-----0---0-----0---|-0-----0---0-------------|-0-----0---0-----0---|
E|-0---0---------|---------------------|-------------------------|---------------------|

  Riff 2
e|-------------|
B|-------------|
G|-------------|
D|-----0-----0-|
A|---2-----0---|
E|-3-----2-----|


Intro: Riff 1, 1st end, riff 1, 2nd end, riff 1, 3rd end, riff 2





Chords:

E*-024xxx
A -x02220
G -320022
G*-320xxx
F*-200xxx
Em-022000

¡Y ya está!
¡Venga Kitus!
Comments