Foo Fighters - On The Mend Chords & Tabs

 

On The Mend Chords & Tabs

Foo Fighters Chords & Tabs

Version: 2 Type: Tab 0 ratings
1 star 2 stars 3 stars 4 stars 5 stars
comments

On The Mend Tab

Foo Fighters - On The Mend

Album: In Your Honor - 2005
Instrument: Guitar
Tuning: Standard

Tabbed By: Smogboy

Theres a few versions of this kicking around but I think some of them are a way off,
heres what i deem to be the definitive tab to the picking parts, save for the odd note
added in between pattern changes. enjoy!!


Verse bit

[ Tab from: http://www.guitartabs.cc/tabs/f/foo_fighters/on_the_mend_tab_ver_2.html ]
  Gtr. 2
e||-----------2-------4---------------2---------0-------||
B||----0----------0-----0-------0---------0-------0-----||
G||------3----------3----3--------3---------3------3----||
D||--4------4---4------4------2-----2---2-----2--2------||
A||-----------------------------------------------------||
E||-----------------------------------------------------||



Was It you? bit

  Gtr. 2
e||-----------6---||		e||-----------5---||
B||----0----------||		B||----0----------||
G||------4--------|| x5		G||------4--------|| x5
D||--6------6-----||		D||--5------5-----||
A||---------------||		A||---------------||
E||---------------||		E||---------------||
Comments