Foo Fighters - On The Mend Chords & Tabs

 

On The Mend Chords & Tabs

Foo Fighters Chords & Tabs

Version: 1 Type: Tab 0 ratings
1 star 2 stars 3 stars 4 stars 5 stars
comments

On The Mend Tab

Foo Fighters - On The Mend

Album: In Your Honor - 2005
Instrument: Guitar
Tuning: Standard

Tabbed By: Kerim B. Jansson


- Verse -
 
Guitar 1:

e||-----0------0---------||
B||-----0------0---------||
G||-----3------1---------||
D||-----4------2---------||
A||-----4------2---------||
E||-----2------0---------||


Guitar 2:

e||-----------2-------4-------------2-------0-----||
B||----0----------0-----0-----0---------0-----0---||
G||------3----------3-----------3---------3-------||
D||--4------4---4-----------4-----4---4-----------||
A||-----------------------------------------------||
E||-----------------------------------------------||


- Chorus -  


Guitar 1

e||-----4------3---------||
B||-----4------3---------||
G||-----4------4---------||
D||-----6------5---------||
A||-----6------5---------||
E||-----4------3---------||

Guitar 2

e||--------6----||     e||--------5----||
B||---0---------||     B||---0---------||
G||-------------||     G||-------------||
D||-----6--6----|| x5  D||-----5--5----|| x4
A||-------------||     A||-------------||
E||-------------||     E||-------------||


- Solo -

Guitar 1

[03:40]

e||-----------------------------------------------||
B||-----------------------------------------------||
G||-----------------------------------------------||
D||---8-9-8-9s11--11h13p11-11h13-14-13-11-9-------||
A||-----------------------------------------------||
E||-----------------------------------------------||
[ Tab from: http://www.guitartabs.cc/tabs/f/foo_fighters/on_the_mend_tab.html ]
e||-----------------------------------------------||
B||-----------------------------------------------||
G||-----------------------------------------------||
D||---11-9-8-9-8-6-8-6-4-6-2-4-2-1----------------||
A||-----------------------------------------------||
E||-----------------------------------------------||

e||-----------------------------------------------||
B||-----------------------------------------------||
G||-----------------------------------------------||
D||---2-2s4-4s6-6s8-8s9-9s11----------------------||
A||-----------------------------------------------||
E||-----------------------------------------------||

e||-----------------------------------------------||
B||-----------------------------------------------||
G||-----------------------------------------------||
D||---11s9-9s8-8s6-6--11s9-9s8-8s6-6--------------||
A||-----------------------------------------------||
E||-----------------------------------------------||

Guitar 2

[03:55] 

e||-----------------------------------------------||
B||-----------------------------------------------||
G||---11-13-11-13-13s15-15-16-15-16-18-16-15-13---||
D||-----------------------------------------------||
A||-----------------------------------------------||
E||-----------------------------------------------||

e||-----------------------------------------------||
B||-----------------------------------------------||
G||---15-13-11-13-11-9-11-9-8-9-8-6-8-6-4h6-------||
D||-----------------------------------------------||
A||-----------------------------------------------||
E||-----------------------------------------------||


Fade Out
Comments