Foo Fighters - Oh George Chords & Tabs

 

Oh George Chords & Tabs

Foo Fighters Chords & Tabs

Version: 2 Type: Bass Tab 0 ratings
1 star 2 stars 3 stars 4 stars 5 stars
comments

Oh George Bass Tab

Song: Oh George
Artist:Foo Fighters
Album:Foo Fighters
Tabbed by Weevil
Corrected by Freak

Verse
G|-----------------------------------------------------
D|---------------------------3-3-3h5-3-----------------
A|------------6--6-6--4-5-6-------------3-3-3---3-2----
E|--5--5-5-5-------------------------------------------

G|-----------------------------------------------------
D|-----------------------------------------------------
A|-----------------------------------------------------
E|--5--5-5-5-0-2-2-2-2-2-0-2-333333333333--------------
[ Tab from: http://www.guitartabs.cc/tabs/f/foo_fighters/oh_george_btab_ver_2.html ]
Chorus
G|-----------------------------------------------------
D|--------------3-2--2--2-2-2------------3-2--2-2-2-2--
A|-----------------------------------------------------
E|--1---1--1-1-------------------1-1-1-1---------------
  
G|-----------------------------------------------------
D|--------------3--2---2--2-2--------------------------
A|------------------------------5-5-5-5-5-5-5-5-5-5----
E|--1--1--1--1-----------------------------------------

play in this order
versex3
chorusx1
versex2
chorusx1
versex2
chorusx2

Any questions/corrections/suggestions? Mail me.
faget@jedi.mailbr.com.br
Comments